""; ?> Sabina Y Piazola by Las Pastillas Del Abuelo - guitar chords, guitar tabs and lyrics - chordie

Sabina Y Piazola

Las Pastillas Del Abuelo


Intro

 DmCBb
 e|----------------------0-0-1-0-----|-------1-----1-----1-----|
 B|---------6----------1---------1---|---------3-----3-----3---|
 G|-----7-----7------0-------------0-|-----3-----3-----3-----3-|
 D|---7---7-----7--------------------|---3---------------------|
 A|-5--------------3-----------------|-1-----------------------|
 E|----------------------------------|-------------------------|


 DmCBb
 e|----------------------0-0-1-0-----|-1-------1---------------|
 B|---------6----------1---------1---|---3-------3-------------|
 G|-----7-----7------0-------------0-|-----3-------3-----------|
 D|---7---7-----7--------------------|-------3-----------------|
 A|-5--------------3-----------------|-1-----------------------|
 E|----------------------------------|-------------------------|


 DmC
Ella buscaba en su armario
 Bb
porque había perdido la razón,
 DmC
yo exprimía diccionarios
 Bb
para poder hacer una canción.

 DmC
No me acuerdo muy bien
 Bb
cuántos besos dejamos en cada esquina,
 DmC
pero imposible olvidarme
 BbF
de aquel cuarto donde aquella noche subió
 C
la adrenalina.

 G
se juntaron Rosario y la Capital,
 Bb
se juntaron el bien y el mal,
 F
se juntaron dos almas en una sola
 C
se juntaron Sabina y Piazzolla.

 G
Se juntó una religión que era puro corazón
 Bb
con otra que nunca existió,
 F
se juntaron dos camas y no alcanzaban
 C
para tanto fuego, tanta acción,
 D5C5A#5D5A#5C5
tanto descontrol.                     

 D5C5A#5D5A#5C5
 D5C5
Elegimos el colchón más chico
 A#5A5A#5C5
y pareció de dos plazas,          
 D5C5A#5
cuando el colchón terminó bienvenido fue el piso
 A5A#5C5D5
 del comedor de su casa.

 D5C5
A cada beso caía una estrella,
 A#5
cada arañazo calmaba el dolor,
 D5C5
cuando me acuerdo de ella
 A#5
levanto mi vaso y brindo
 F
adonde quiera que estés
 C
por nuestra canción.

Se juntaron Rosario y la Capital...

Acordes:

EADGBe
Dm x57765
C x32010
Bb x13331
 F133211
         G   320003
D5 x577xx
A#5 x133xx
C5 x355xx
A5 x022xx

por pablo amil


A#5 A5 Bb C C5 D5 Dm F G
variations - click chord images
Transpose chords:
Tuning:
Cool service:
View: Size:
A  A  A
Rating:
Layout:
  • Currently 2.7/5 Stars.
  • 1
  • 2
  • 3
  • 4
  • 5
 
Accuracy:
  • Currently 3.5/5 Stars.
  • 1
  • 2
  • 3
  • 4
  • 5
 
click stars to rate
Chordie recommends:
Check out JamPlay.com for online video guitar lessons
Songbook:
Login to add this song to your songbook
Support the artist
Preview/buy this song
MSN Music
Why this non-profit ad?

 
login to add comments/video/corrections