Guitar Tabs, Chords and Lyrics


The Girl On Death Row  Lee Hazlewood

[Gm]      [Bb]      [D#]       [F]                                             
e-3-  e-6-  e-6-  e-8-
a-3-  a-6-  a-8-  a-10
g-3-  g-7-  g-8-  g-10
d-5-  d-8-  d-8-  d-10
a-5-  a-8-  a-6-  a-8-
E-3-  E-6-  E---  E---

Intro:
Second guitar strums chords
[Gm]                            [Gm]                                   
|----------------------------------------------------------------|
|----------------------------------------------------------------|
|----------------------------------------------------------------|
|------5-4-----4-3----------------------5-4---4-3-1-0------------|
|----5-------5-------5---4---5--------5-----5---------4-5-----5--|
|---------------------------------------------------------4------|

1st verse:
[Gm]   Her eyes were once so [Bb]full of dreams.
[Gm]   Her young heart filled with l[Bb]over schemes.
[D#]   Now every sec[F]ond she mus[Bb]t borrow.
[D#]   They take her [F]life t[Bb]omorrow.
[Bb]   Is she guilty? She says no.
   The g[Gm]irl on death row.
2nd verse:
[Gm]   Now someone holds her tremb[Bb]ling hand.
[Gm]   Another says please u[Bb]nderstand.
[D#]   Why can't [F]they see it in[Bb] her face?
[D#]   Another [F]should be[Bb] in her place.
[Bb]   Is she guilty? She says no.
   The g[Gm]irl on death row.
3rd verse:
[Gm]   Her young dreams never will[Bb] come true.
[Gm]   Her innocence they nev[Bb]er knew.
[D#]   Until th[F]ey've found the g[Bb]uilty one.
[D#]   They're sorry [F]now for [Bb]what they've done.
[Bb]   But it's late, too late
   For the [Gm]girl on death row.
[Gm]...The girl on death row... (fade)
repeat intro riff followed by this riff while fading
|---------------|
|---------------|
|---------------|
|---------------|
|-5-4---5-------|
|-----------3---| Repeat until fade				


Important: The song above is NOT stored on the Chordie server. The original song is hosted at www.guitaretab.com. Chordie works as a search engine and provides on-the-fly formatting. Chordie does not index songs against artists'/composers' will. To remove this song please click here.

Text color:
Chord color:
Chord grids: 
Font size:    
Page size: 

Bb D# F Gm
variations - click chord images

Login - add to songbook

Transpose chords

Tuning

Rating click stars to rate

Layout
Accuracy

SHARE PAGE  




You need to log in to post comments