Guitar Tabs, Chords and Lyrics


Lo Zoo E Qui  Ligabue

------------------------       --3---2---|


------------------------       --3---3---|


------------------------  (3v) --0---2---|

-----------------0-2---- --0---0---|
-------------0-2-------- --2-------|
--0-0--2b3-0------------ --3-------|
|-3-|MIm |-3-| |-3-----------------|LA
e:-------------------|-------------------|---------------------|
B:---------------3-5-|---------------3-5-|---------------3-5---|
G:-------0---2-------|-------0---2-------|-------0---2---------|
D:-2-2-2---2---2-----|-2-2-2---2---2-----|-2-2-2---2---2-------|
A:-------------------|-------------------|---------------------|
E:-------------------|-------------------|---------------------|
+------- +-------
e:-3-----2----|-3-2-0---2---0---|
B:-3-----3----|-------3---------|
G:-0-----2----|-----------------|
D:-0-----0----|-----------------|
A:-2----------|-----------------|
E:-3----------|-----------------|
Ca[Em]vallo da corsa, cavallo da soma
ca[A]vallo non ancora cattu[G]rato[D]
[Em]Lupo da branco, lupo da solo
il [A]lupo tanti agnelli e niente [G]denti, [D]che pecc[Em]ato
che pec[A]cato, [G]che [D]pecc[Em]ato, che pec[A]cato  [G]  [D]
[Em]Scimmia da spalla, scimmia da pianola
[A]scimmia brava per la noccio[G]lin[D]a
[Em]Toro da sagra, toro botta sola
[A]toro solo andata da cor[G]rida [D]
e, a[A]mico, che ti piaccia o no, e' cosi[G]'
[D]e lo zoo e' qui [Em]
lo zo[A]o, lo zo[G]o e' ade[D]sso e' qui
[Em]      lo zo[A]o e' aper[G]to, e' ade[D]sso, e' qui
[Em]      lo zo[A]o e' aper[G]to, e' ade[D]sso, e' gra[A]tis ed e' qui
[A]lo zoo e' qui
[Em]Oche da ingrasso, squali da piscina
[A]jene ridens piene di mo[G]tiv[D]i
ci[Em]vette da spasso, cani a bocca piena
si[A]rene da morirci se le [G]ved[D]i.
[Em]Mosche da merda, cobra alla catena
po[A]iane sempre sugli stessi [G]ram[D]i
fa[Em]ine alla corda, vampiri di mattina,
ca[A]maleonti sempre troppo u[G]guali[D]
e, a[A]mico, che ti piaccia o no, e' cosi[G]'
[D]e lo zoo e' qui [Em]
lo zo[A]o, lo zo[G]o e' ade[D]sso e' qui
[Em]      lo zo[A]o e' aper[G]to, e' ade[D]sso, e' qui
[Em]      lo zo[A]o e' aper[G]to, e' ade[D]sso, e' gra[A]tis ed e' qui
[C]  Lo lo lo lo lo zoo e'
[D]  lo lo lo lo lo zoo e'
[C]  Lo lo lo lo lo zoo e'
[D]  lo lo lo lo lo zoo e'
[C]  Lo lo lo lo lo zoo e'
[D]  lo zoo e' qui,
lo zoo e' qui

(Finale)
[Em]      [A]   [G]  [D]                          
[Em]                                  

Important: The song above is NOT stored on the Chordie server. The original song is hosted at www.guitaretab.com. Chordie works as a search engine and provides on-the-fly formatting. Chordie does not index songs against artists'/composers' will. To remove this song please click here.

Text color:
Chord color:
Chord grids: 
Font size:    
Page size: 

A C D Em G
variations - click chord images

Login - add to songbook

Transpose chords

Tuning

Rating click stars to rate

Layout
Accuracy

SHARE PAGE  




You need to log in to post comments