Chordie logo


Rollin   Limp Bizkit



My first tab :) Hope you like it! ;)

The timing of the piece you can figure out for yourself.

PM = Palm Mute
/ = Slide

INTRO: Hint: Palm Mute the first 7 times of the INTRO. On the 8th and final time, take 
hand off the strings and strum as hard as you can.

Heavy Distortion is all the way through the piece.
PM

D#---------------|
A#---------------|
F#---------------|
C#-000-777-333---| x8
G#-000-777-333---|
C#-000-777-333---|

CHORUS:

D#----------------------------------------------|
A#----------------------------------------------|
F#----------------------------------------------|
C#-000-777-555-333-0-2-0-3----------------------| x4
G#-000-777-555-333-0-2-0-3----------------------|
C#-000-777-555-333-0-2-0-3-12/-12/-12/----------|

VERSE 1:

There is a little fill-in at the very beginning of the 1st verse after Fred Durst 
sings: 'No I know y'all be lovin' this shit right here!' which I think goes like this:

PM
D#----------------------------|
A#----------------------------|
F#----------------------------|
C#----------------------------|
G#----------------------------|
C#-12-10-12-10-12/-12/-12/----| The two slides at the end are faint, but there.

Then the 1st VERSE goes on like this:

PM
D#-------------------------------------------------------|
A#-------------------------------------------------------|
F#-------------------------------------------------------|
C#-------------------------------------------------------| x3
G#--------121212-----------------------------------------|
C#-121212--------171717-151515-14141414-12/-12/-12/------|

PRE-CHORUS

PM
D#---------------|
A#---------------|
F#---------------|
C#-000-777-333---| x4
G#-000-777-333---|
C#-000-777-333---|

CHORUS:

D#----------------------------------------------|
A#----------------------------------------------|
F#----------------------------------------------|
C#-000-777-555-333-0-2-0-3----------------------| x4
G#-000-777-555-333-0-2-0-3----------------------|
C#-000-777-555-333-0-2-0-3-12/-12/-12/----------|

VERSE 2:

The 2ND VERSE doesn't do the faint fill-in after the first line. It just goes straight into this:

PM
D#-------------------------------------------------------|
A#-------------------------------------------------------|
F#-------------------------------------------------------|
C#-------------------------------------------------------| x4
G#--------121212-----------------------------------------|
C#-121212--------171717-151515-14141414-12/-12/-12/------|

PRE-CHORUS

PM
D#---------------|
A#---------------|
F#---------------|
C#-000-777-333---| x4
G#-000-777-333---|
C#-000-777-333---|

CHORUS:

D#----------------------------------------------|
A#----------------------------------------------|
F#----------------------------------------------|
C#-000-777-555-333-0-2-0-3----------------------| x4
G#-000-777-555-333-0-2-0-3----------------------|
C#-000-777-555-333-0-2-0-3-12/-12/-12/----------|

INTERLUDE:

You can work out where the slides come in ;)

D#-----------------|
A#-----------------|
F#-----------------|
C#-----------------| x3
G#-----------------|
C#-12/-12/---------|

On the 4th and final time though, it only slides once

D#-----------|
A#-----------|
F#-----------|
C#-----------|
G#-----------|
C#-12/-------|

CHORUS:

D#----------------------------------------------|
A#----------------------------------------------|
F#----------------------------------------------|
C#-000-777-555-333-0-2-0-3----------------------| x4
G#-000-777-555-333-0-2-0-3----------------------|
C#-000-777-555-333-0-2-0-3-12/-12/-12/----------|

INTERLUDE 2

There are 3 sparse slides like this:

D#--------------------|
A#--------------------|
F#--------------------|
C#--------------------|
G#--------------------|
C#-12/-12/-12/--------|

CHORUS

D#----------------------------------------------|
A#----------------------------------------------|
F#----------------------------------------------|
C#-000-777-555-333-0-2-0-3----------------------| x4
G#-000-777-555-333-0-2-0-3----------------------|
C#-000-777-555-333-0-2-0-3-12/-12/-12/----------|

Here's the order to make it easy ;) :

INTRO x8
CHORUS x4
VERSE 1 (FILL-IN) x1
VERSE 1 (CONTINUED) x3
PRE-CHORUS x4
CHORUS x4
VERSE 2 x4
PRE-CHORUS x4
CHORUS x4
INTERLUDE (FIRST 3 TIMES) x3
INTERLUDE (LAST TIME) x1
CHORUS x4
SPARSE CHORDS (2ND BRIEF INERLUDE) x1


Important: The song above is NOT stored on the Chordie server. The original song is hosted at www.guitaretab.com. Chordie works as a search engine and provides on-the-fly formatting. Chordie does not index songs against artists/composers will. To remove this song please click here.

This song is displayed as text-only. Transposing and tuning is only available for chordpro-songs.

Login - add to songbook

Rating click stars to rate

Layout
Accuracy

SHARE PAGE  




You need to log in to post comments