Guitar Tabs, Chords and Lyrics


That One Theyre All Talking About   Unknown










Author/Artist: Unknown
Title: Edge
Album: You know that one
Transcribed by: Matt Dunn
Email: veryhotmale9@hotmail.com

Sorry this isn't avaible on Napster?

------------------------------------------------------------------------------|
-----5-------3-------1-------------------5-------3-------1--------------------|
---7---7---5---5---3---3---------------7---7---5---5---3---3------------------|
-5-------3-------1-------------------5-------3-------1------------------------|
-------------------------7-5---------------------------------7-5--------------|
-----------------------------7-5---------------------------------7-5----------|


------------------------------------------------------------------------------|
------------------------------------------------------------------------------|
--------------------------------------------0-------0-------0-------0---------|
----------55555555----------77777777-x3---7---7---9---9---4---4---4---4-x2----|
-55555555-33333333-77777777-55555555----5-------7-------2---------------------|
-33333333----------55555555-------------------------------------3-------------|


------------------------------------------------------------------------------|
------------------------------------------------------------------------------|
------------------------------------------------------------------------------|
-44444444------------------------------------------33333333/55555555----------|
-55555555-55555555/99999999\55555555--x2--55555555-11111111/33333333----------|
----------33333333/77777777\33333333------33333333----------------------------|


------------------------------7-7-6h7-5---------------------------------------|
--------------------------6-5-----------7-5-----------------------------------|
----------------------5-4-----------------------------------------------------|
------------------4-3---------------------------------------------------------|
-33333333-----3-2-------------------------------------------------------------|


Important: The song above is NOT stored on the Chordie server. The original song is hosted at www.guitaretab.com. Chordie works as a search engine and provides on-the-fly formatting. Chordie does not index songs against artists'/composers' will. To remove this song please click here.

This song is displayed as text-only. Transposing and tuning is only available for chordpro-songs.

Login - add to songbook

Rating click stars to rate

Layout
Accuracy

SHARE PAGE  




You need to log in to post comments