Guitar Tabs, Chords and Lyrics


Seven And Seven Is  Love



["7 And 7 Is" on tbe 45; "Seven & Seven Is" on tbe LP.] 
Intro:

[The bass sounds like it is played in octaves in real time, not
overdubbed.]

bass (slide between roots of chords) w/heavily-tremoloed guitar:

             [Am]v   v   v   v     [C]v   v   [G]v   v
	---|-----------------|-----------------|
	(5)|/7---------------|/10-----/17------|
	---|-----------------|-----------------|
	(3)|/5---------------|/8------/15------|


             [D]v   v   v   v     [F]v   v   [C]v   v
	    -----------------|-----------------|
	    \12--------------|/15------\10-----|
	    -----------------|-----------------|
	    \10--------------|/13------\8------|


             [Em]v   v   v   v     v   v   v   v
	    -----------------|-----------------|
	    /14--------------|/14------14------|
	    -----------------|-----------------|
	    /12--------------|/12------12------|



bass:

         [A]v   v [Asus4]  v   v     [A]v   v [Asus4]  v   v
	-----------------|-----------------|
	-------0---------|-------0---------|
	-0---3-----------|-0---3-----------|
	---------0---3-0-|---------0---3-0-|


Verse 1:

        [A]When I was a b[E]oy I thought ab[G]out the times I'd [D]be a [A]ma[Asus4]n     [A]  [Asus4]
        [A]I'd sit inside a b[E]ottle and pret[G]end that I was [D]in a [A]ca[Asus4]n     [A]  [Asus4]
Am C* G D A Asus4 A Asus4
In my lonely room I'd sit my mind in an ice cream cone
        [Am]You can throw [C]me if you wanna 'cause I'm a b[G]one and I go
              [A]E  A  A]  [E] [ A  A]&nbsinlcbsp;      [Am]       <- bass
        [3/4] Oop-ip-ip  oop-ip-ip, [4/4] yeah!

* mistake during verse 1: bass plays E pattern over C chord

[repeat intro] 

Verse 2:

If I don't start cryin' it's because that I have got no eyes
My father's in the fireplace and my dog lies hypnotized
Through a crack of light I was unable to find my way
Trapped inside a night but I'm a day and I go
Oop-ip-ip oop-ip-ip, yeah!

[repeat intro] 

Coda:

        [A]One[Asus4]...     [A]Two[Asus4]...     [A]Thr[Asus4]ee...   [A]Fou[Asus4]r!

        Em        F         C         G         [2X]
        Em       F       C       G        [4X]
v v v v
	-----12------12------12------12--|
	15b17---15b17---15b17---15b17----|
	---------------------------------|
	---------------------------------|
	---------------------------------|
	---------------------------------|


Em (N.C.; atom bomb explosion)

        [12/8]:

         [C]v   .   .   v   .   .   [Am]v   .   .   v   .   .
	-8--------------h10--8---7-----------------------|
	---------------------------------10--------------|
	------------------------------------8h9----------|
	---------------------------------------------10--|
	-------------------------------------------------|
	-------------------------------------------------|


         [F7]v   .   .   v   .   .   [G7]v   .   .   v   .   .
	-------------------------------------------------|
	---------------------------------11------11------|
	-8-------------------8-10b12-------10b12---------|
	-----------------10------------------------------|
	-------------------------------------------------|
	-------------------------------------------------|


         [C]v   .   .   v   .   .   [A7]v   .   .   v   .   .
    -------------------------------------------8----------|
    -----------------------------------------8--13b15r13--|
   10b12r10p8--------8---8b----------------10b12----------|
    ----10-------------------10---------------------------|
    ------------------------------------------------------|
    ------------------------------------------------------|

^ 1/4 tone

         [F]v   .   .   v   .   .   [G7]v   .   .   v   .   .
	-------------------15b17---------13--8-----------|
	-----------------13----------------------8-------|
	-----------12s14----------------------------8h9--|
	-------------------------------------------------|
	-------------------------------------------------|
	-------------------------------------------------|


         C                       A7  [fade]
v . . v . . v . . v . .
	-------------------------------------------------|
	-------------------------------------------------|
	-------------------10b12-8-----------------------|
	-10----------------------------------------------|
	-------------------------------------------------|
	-------------------------------------------------|				


Important: The song above is NOT stored on the Chordie server. The original song is hosted at www.guitaretab.com. Chordie works as a search engine and provides on-the-fly formatting. Chordie does not index songs against artists'/composers' will. To remove this song please click here.

Text color:
Chord color:
Chord grids: 
Font size:    
Page size: 

A A7 Am Asus4 C D E Em F F7 G G7
variations - click chord images

Login - add to songbook

Transpose chords

Tuning

Rating click stars to rate

Layout
Accuracy

SHARE PAGE  




You need to log in to post comments