Guitar Tabs, Chords and Lyrics

Tralala  Lush

lead: e I-------------|-----0-----|-----0---------|------------|I

B I--1-1-1--3-3-|-1-1---3-3-|-1-1----1--3-3-|-0-0-0---0--|I
G I-------------|-----------|---------------|-------2----|I
D I-------------|-----------|---------------|------------|I
A I-------------|-----------|---------------|------------|I
E I-------------|-----------|---------------|------------|I
[Bm]In this world I l[E]ive in
[D]I care for number[E] one
[Bm]Hell is round the [E]corner
[D]Never trust no [E]one
[A]Fummy how the [C#m]people c[G]ame to gather [F#m]round
[A]Oh so many peo[C#m]ple [G]when I was on the [F#m]ground

rhythm: Bm E
lead: e ---------2---------------2---------------0---------------0-----------|
      B -------3---3-----------3---3-----------0---0-----------0---0---------|
      G -----4-------4-------4-------4-------1-------1-------1-------1-------|
      D ---4-----------4---4-----------4---2-----------2---2-----------2-----|
      A -2---------------2---------------2---------------2---------------0---|
      E ---------------------------------------------------------------------|

voice: I've never known what love is
If they want to treat me good

rhythm: D E
lead: e -------2---------------2---------------0---------------0-------------|
      B -----3---3-----------3---3-----------0---0-----------0---0-----------|
      G ---2-------2-------2-------2-------1-------1-------1-------1---------|
      D -0-----------0---0-----------0---2-----------2---2-----------2-------|
      A ---------------0---------------2---------------2---------------------|
      E ---------------------------------------------------------------------|

voice: There's no mister Right
Then that's their sorry plight

(both guitars play rhythm chords)
[A]Funny how the p[C#m]eople[G] came to give their [F#m]voice
[A]Are they really p[C#m]eople or[G] just silly little[D] boys?

*CHORUS 1* (both guitars play rhythm chords)
[F#m]Say what you [G]want, I don't [F#m]mind, I don't m[E]ind
F#m G F#m F / F#m / = slide to
Say what you need, I don't mind, I don't mind
I don't [F]mind[F#m], I don't m[F]ind.[F#m]..        [E]

rhythm gtr plays verse chords in the way lead gtr plays them in verse 2
lead gtr plays this:

rhythm: Bm E D E
lead: e I--------------------------------------------------|
      B I-0--3-3--2-2-2-0-0---0-0-0-0-0--------------------|
      G I-------------------------------2-2--2-1-----------|
      D I----------------------------------------4--2-2-2--|
      A I--------------------------------------------------|
      E I--------------------------------------------------|

rhythm: Bm E D E A
lead: e -----------0-0--2-2-0-0--0-0-----0-0--2-2-2-2-2--4-4---4-4-4-4-4---5-|
      B 0--3-3-3-3-------------------3-3-------------------------------------|
      G ---------------------------------------------------------------------|
      D ---------------------------------------------------------------------|
      A ---------------------------------------------------------------------|
      E ---------------------------------------------------------------------|

[A]I want all the p[C#m]eople [G]to notice who I [F#m]am
[A]Gotta show them wh[C#m]at you've got[G], or they won't give a [D]damn

*CHORUS 2* (both guitars play rhythm chords)

[F#m]Say what you [G]want, I don't [F#m]mind, I don't m[E]ind
[F#m]Say what you [G]need, I don't [F#m]mind, I don't [G#m]mind  [G]    [D]    [E]

Exactly like intro, ending on A

that's it. have fun!
tabbed by miss mavis
for any suggestion/correction, or if you're a Lush fan, write me!

Important: The song above is NOT stored on the Chordie server. The original song is hosted at Chordie works as a search engine and provides on-the-fly formatting. Chordie does not index songs against artists'/composers' will. To remove this song please click here.

Text color:
Chord color:
Chord grids: 
Font size:    
Page size: 

A Bm C#m D E F F#m G G#m
variations - click chord images

Login - add to songbook

Transpose chords


Rating click stars to rate


Jango Player


You need to log in to post comments