Guitar Tabs, Chords and Lyrics


Oceanliner  Madrugada

    [F]                                 [C]            [G]   [Am]         [G]                    
e||----------------------------------------------------------3-3------|
B||-1---1--1--1--1--1--1------1---1--1----1--1------1--1-1---3-3------|
G||-2---2--0--2--0--2--0---2--2---0--0----0--0---0--2--2-2---0-0------|
D||-3---3--3--3--3--3--3---3--3---3--0h2--2--2---0--2--2-2---0-0------|
A||-3---3--3--3--3--3--3---3--3---3--3----3--3---2--0--0-0---2-2------|
E||------------------------1--------------3--3---3--0--------3-3------|



Intro:

F C G Am G *2


Verse:

[F]Oh the evening anothe[C]r song b[G]eh[Am]ind     [G]

[F]A steam is rising and we ar[C]e rolli[G]ng[Am] on   [G]
[F]Oh, and (t)here's a bottle of wine
Let's drink a t[C]oast to the new wor[G]ld ar[Am]ising      [G]
O[F]h, while the hands on the timekeys keep tu[G]rn[Am]ing
Ke[G]ep tu[Am]rning, w[G]e are never going h[F]ome
Chorus:

[C]The weight of time i[Em]nside the oceanliner made [F]the ship go down    [C]
[C]The weight of time i[G]nside the oceanliner, [F]we going down

Ye[C]ah, and it's about time we were on our [Em]way
Oh it's old tim[F]es you see (the/her) sinking[C]
[C]Oh it's coming out loud in h[G]ere
Keep on turning [F]
Keep turning 'round

F C G Am C*2


Verse:
[F]Oh forest pine, a bitte[C]r taste of [G]def[Am]eat      [G]

[F]Of blood and iron, must away[C] from thi[G]s [Am]heat     [G]

[F]Oh and now a cannibal flies, no mercy, [C]for us down[G] h[Am]ere   [G]
[F]Oh for the past and the present
Once and for all,[G] w[Am]e wage war
[G]On[Am] the 20th[G] century risi[F]ng
Chorus:

[C]The weight of time i[Em]nside the oceanliner made [F]the ship go down    [C]

[C]We're parting, tonig[G]ht, (now) with the oce[F]anliner, we going down
[C]And it's about time we were on our[Em] way
Oh it's [F]old times you see the/her si[C]nking
Oh it's coming o[G]ut loud in here
Just keep on turning  [F]
Yeah, oh, keep turning 'round


Solo: C Em F C G F x2

e||----------------------------------------------------------------|
B||----------------------------------------------------------------|
G||----------------------------------------------------------------|
D||-10--10---10-12-12/14--14---14-14-14/15-15-14---12-12--10-------|
A||----------------------------------------------------------------|
E||----------------------------------------------------------------|
e||----------------------------------------------------------------|
B||----------------------------------------------------------------|
G||----------------------------------------------------------------|
D||----------------------------------------------------------------|
A||-10-10--12-10---------------------------------------------------|
E||---------------13-13--12-12-10--10---8/10---10-8-10-8------|
e||----------------------------------------------------------------|
B||----------------------------------------------------------------|
G||---------------------------------------14--12----------12-12----|
D||-------------------------10-12-12/14-----------14--12--14----14-|
A||--------------10-12-10------------------------------------------|
E||-10/12-12-13----------------------------------------------------|
e||----------------------------------------------------------------|
B||----------------------------------------------------------------|
G||----------------------------------------------------------------|
D||-14-12-12-12-14-12----------------------------------------------|
A||-------14-------14-12-10----------------------------------------|
E||----------------------------------------------------------------|



Verse:

[F]Oh dangling on an old general's c[C]hest, there's an old[G] si[Am]lver head   [G]

[F]Oh the spirit of a generation sent to res[C]t with the n[G]atio[Am]ns best    [G]
[F]And all asleep, and grab the hammer [C]and sical, my[G] bro[Am]ther      [G]
[F]Oh and leave it for the captain to p[G]onde[Am]r over
[G]Why h[Am]is ship, s[G]ank beneath the wav[F]es
--------------------------------------------------------------------------------
--------------------------------------------------------------------------------

Important: The song above is NOT stored on the Chordie server. The original song is hosted at www.guitaretab.com. Chordie works as a search engine and provides on-the-fly formatting. Chordie does not index songs against artists'/composers' will. To remove this song please click here.

Text color:
Chord color:
Chord grids: 
Font size:    
Page size: 

Am C Em F G
variations - click chord images

Login - add to songbook

Transpose chords

Tuning

Rating click stars to rate

Layout
Accuracy

SHARE PAGE  




You need to log in to post comments