Ojala Pudiera Borrarte

Man

1|------------------|

2|------------------|
3|-7-7---7--7--7--7-|
4|-5-5---5--4--4--4-|
5|------------------|x5
6|------------------|
1|------------------|------------------|
2|------------------|------------------|
3|-7-7---7--7--7--7-|-5-5---5--5--5--5-|
4|-5-5---5--4--4--4-|-5-5---5--5--5--5-|
5|------------------|-3-3---3--3--3--3-|
6|------------------|------------------|
1|------------------|------------------|
2|------------------|------------------|
3|-7-7---7--7--7--7-|-7-7---7--7--7--7-|
4|-7-7---7--7--7--7-|-5-5---5--4--4--4-|
5|-5-5---5--5--5--5-|------------------|x2
6|------------------|------------------|

 EmDCGD
 Vuelve corazón, uh, vuelve  a mi lado,
 EmDCEmBm
 Vuelve corazón, no vuelve, no vuelve, no vuelve.

 CGBmEm
 Ojala y te me borraras para siempre,de mi vida para no volverte a ver,
 CGBmEm
 Y ojala y te me borraras por las noches, en el dia, para no volverte a ver,
 CGBmCD
 Y ojala y te me esfumaras de mis sueños vida mia para no volverte a ver no
 G
ni en sueños.

1|----------------------|---------------------|
2|-------------4/5------|---------------------|
3|----4-5-7-7-----------|-2-4-5-5--4-2-4------|
4|-5----------------5-4-|---------------------|
5|----------------------|-----------------5/0-|
6|----------------------|---------------------|
1|-----------------------|----------------|
2|-----------------8-----|------10--8-7-8-|
3|-4---4----5/7--7---7-5-|-4/5------------|
4|---5---5---------------|----------------|
5|-----------------------|----------------|
6|-----------------------|----------------|


Como puedo yo borrar tus besos vida, estan tatuados en mi piel,
1|-10--------------------------------|------------------------7-|
2|-----------8-----------------------|-7----------------------8-|
3|-------------------6---------------|-7-----------7------------|
4|-----------------------------------|--------------------------|
5|-----------------------------------|--------------------------|
6|-----------------------------------|--------------------------|


Quiero de una vez por todas ya largarte, y borrarte de mi ser.
1|-7------------------------3------------|----------------------|
2|-8------------------------5------------|-7------------------8-|
3|---------3-----------------------------|----------7---------9-|
4|---------------------------------------|----------------------|
5|---------------------------------------|----------------------|
6|---------------------------------------|----------------------|


Ojala y la lluvia me ahogue entre tus brazos,
1|------------------|------------------|
2|------------------|------------------|
3|-7-7---7--7--7--7-|-5-5---5--5--5--5-|
4|-5-5---5--4--4--4-|-5-5---5--5--5--5-|
5|------------------|-3-3---3--3--3--3-|
6|------------------|------------------|


para no pensar en ti..........
1|------------------|------------------|
2|------------------|------------------|
3|-7-7---7--7--7--7-|-7-7---7--7--7--7-|
4|-7-7---7--7--7--7-|-5-5---5--4--4--4-|
5|-5-5---5--5--5--5-|------------------|x2
6|------------------|------------------|


 EmDCGD
 Vuelve corazon, uh, vuelve a mi lado,
 EmC
 Pero no, no, no, no vuelve corazon,
 EmBm
 No vuelve, no vuelve, no vuelve no.

 CGBmEm
 Ojala y te me borraras para siempre de mi vida, para no volverte a ver,
 CGBmEm
 Y ojala y te me borraras por las noches, en el dia para no volverte a ver.
 CGBmEm
 Ojala y te me esfumaras de mis sueños, vida mia, y que no me lluevas mas,
 CGBmC
 Y ojala y que la lluvia me ahogue entre tus brazos para no volverte a ver,
 DEmCD
 No, ni en sueños, pa' que pares de llover,

 GCCD
 sueños,
 GCCD
 sueños,
 GCCD
 oh, sueños.

bye !!!!


Bm C D Em G
variations - click chord images
Transpose chords:
Tuning:
Cool service:
View: Size:
A  A  A
Rating:
Layout:
  • Currently 2.8/5 Stars.
  • 1
  • 2
  • 3
  • 4
  • 5
 
Accuracy:
  • Currently 3.5/5 Stars.
  • 1
  • 2
  • 3
  • 4
  • 5
 
click stars to rate
Chordie recommends:
Learn to play guitar with video-based, online guitar lessons at JamPlay.com
Songbook:
Login to add this song to your songbook
Support the artist
Preview/buy this song
MSN Music
Why this non-profit ad?

 
login to add comments/video/corrections