eToCache5 = ""; ?> San Francisco by Scott McKenzie - guitar chords, guitar tabs and lyrics - chordie

San Francisco

Scott McKenzie

  ------------------------------                                  (Phillips)


 #4
| G        |          ||                                                       4
 EmC/GGD
                     If you're goin' to San Francisco
 EmC/GGD
    Be sure to wear some flowers in your hair
 EmGC/GG
    If you're goin' to San Francisco
 BmEmD
You're gonna meet some gentle people there
 EmC/GGD
    For those who come to San Francisco
 EmC/GGD
    Summer time will be a-lovin' there
 EmGC/GG
    In the streets of San Francisco
 BmEmD
Gentle people with flowers in their hair
 F5
    All across the nation
Such a strange vibration
 G5
    People in motion
 F5
    There's a whole generation
With a new explanation
 G5
    People in motion
 D
    People in motion
 EmAmC/GGBmD
    For those who come, to San Francisco
 EmC/GGD
    Be sure to wear some flowers in your hair
 EmGC/GG
    If you come to San Francisco
 BmEmG
Summertime will be a-lovin' there
(Bass cue)
E |-------------------||
B |-------------------||
G |-------------------||
D |-------------------||
A |-------------------||
E |--0-0-0-0-0-0-0-0--||

(Key change: # # )

 F#mADA
     If you come to San Francisco
 C#mF#mA
Summertime, will be a-lovin' there
| F#m | A | D | A ||
(Chords:)
 GEmC/GDBmF5G5AmF#mAC#m
             (Bass plays C)          
E |--3----0-------0----------2----2--------------0----2----5----4----|
B |--0----0-------1----------3----3--------------1----2----5----5----|
G |--0----0-------0----------2----4--------------2----2----6----6----|
D |--0----2-------2----------0----4---------0----2----4----7----6----|
A |--2----2-------3---------------2----3---------0----4----7----4----|
E |--3----0-------3--------------------1----3---------2----5---------|

*******************************************************************************
Keep rockin !
Max ( Max_Guitarplayer@hotmail.com )
*******************************************************************************

A Am Bm C#m C/G D Em F#m F5 G G5
variations - click chord images
Transpose chords:
Tuning:
Cool service:
View: Size:
A  A  A
Rating:
Layout:
  • Currently 3.1/5 Stars.
  • 1
  • 2
  • 3
  • 4
  • 5
 
Accuracy:
  • Currently 2.9/5 Stars.
  • 1
  • 2
  • 3
  • 4
  • 5
 
click stars to rate
Chordie recommends:
Learn to play this song & others via video guitar lessons at JamPlay.com
Songbook:
Login to add this song to your songbook
Support the artist
Preview/buy this song
MSN Music
Why this non-profit ad?

 
login to add comments/video/corrections