Guitar Tabs, Chords and Lyrics


A Tout Le Monde  Megadeth

-------------------------------------------------------------------------------



-------------------------------------------------------------------------------

e|---------------------------------|
B|---------------------------------|
G|-----2-----2---------2-----2-----|
D|---------------------------------|
A|---4-----4-----4---4-----4-----4-|
E|-2-----2-----2---0-----0-----0---|
e|---------------------------------|
B|---------------------------------|
G|-----2-----2---------2-------2---|
D|---4-----4---4-----0-------2-----|
A|-2-----2-----------------0-------|
E|---------------1-2-----3-------3-|
[F#]So as you read this [A]know my friends
[B]I'd love to stay with you [F#]all
[F#]Please smile when you [A]think of me
[B]My bodys gone thats [D]all
Chorus
[F#]A tout le monde
[E]A tout les amis
[B]Je vous aime
[F#]Je dois partir
[A]These are the last words
[C#]I'll ever speak
[B]And they'll set me [D]free


[F#]If my heart [E]was still alive
[B]I know it would surely break [G]  [A]
[F#]And my memories [E]left with you
[B]There's nothing more to say [G]  [A]
[F#]Moving on [A]is a simple thing
[B]What it leaves behind is [F#]hard
[F#]You know the sleeping [A]feel no more pain
And the [B]living are [D]scarred
(Chorus)

(Play this during solo x2)
[F#]   [E]  [B]  [G]  [A]                            
[G#]So as you read this, [B]know my friends
[C#]I'd love to stay with you [G#]all
[G#]Please smile, [B]smile when you think about me
[C#]My bodys gone thats [E]all

(Chorus x2)

(Play this during solo)
[F#]   [E]  [B]  [C#]   [G#]   [D]  [A]  [B]  [F#]                  
Outro:
e|---------------------------------|
B|---------------------------------|
G|-----2-----2---------2-----2-----|
D|---------------------------------|
A|---4-----4-----4---4-----4-----4-|
E|-2-----2-----2---0-----0-----0---|
e|---------------------------------|
B|---------------------------------|
G|-----2-----2---------2-------2---|
D|---4-----4---4-----0-------2-----|
A|-2-----2-----------------0-------|
E|---------------1-2-----3-------3-|

                                    [F#]                                                 
e|----------------------------------2-|
B|----------------------------------2-|
G|----------------------------------2-|
D|-----0---0-----------0---0--------4-|
A|---4---4---4---4---4---4---4---4--4-|
E|-2-----------2---2-----------2----2-|


Important: The song above is NOT stored on the Chordie server. The original song is hosted at www.guitaretab.com. Chordie works as a search engine and provides on-the-fly formatting. Chordie does not index songs against artists'/composers' will. To remove this song please click here.

Text color:
Chord color:
Chord grids: 
Font size:    
Page size: 

A B C# D E F# G G#
variations - click chord images

Login - add to songbook

Transpose chords

Tuning

Rating click stars to rate

Layout
Accuracy

SHARE PAGE  




You need to log in to post comments