Guitar Tabs, Chords and Lyrics


Girls Night Out   Miley Cyrus



Miley Cyrus - Girls Night Out
-----------------------------

This is how I play 'Girls Night Out' by Miley Cyrus. It basically
consists of four parts that are repeated time and again. I think it rocks
and it is kind of easy to play. Have fun!




e|---------------------(8-10-10-10)--|
B|--/15--13---13--15~--(8-10-10-10)--|
G|----------14-----------------------|  3x
D|-----------------------------------|
A|-----------------------------------|
E|-----------------------------------|



e|------------------|-----------------|-----------------|------------------|
B|------------------|-----------------|-----------------|------------------|
G|------------------|-2-2-2-2-2-2-2-2-|-3-3-3-3-3-3-3-3-|-5-5-5-5-5-5-5-5--|
D|--5-5-5-5-5-5-5-5-|-2-2-2-2-2-2-2-2-|-3-3-3-3-3-3-3-3-|-5-5-5-5-5-5-5-5--|
A|--5-5-5-5-5-5-5-5-|-0-0-0-0-0-0-0-0-|-1-1-1-1-1-1-1-1-|-3-3-3-3-3-3-3-3--|
E|--3-3-3-3-3-3-3-3-|-----------------|-----------------|------------------|

e|----------------------|--------------------|
B|----------------------|--------------------|
G|----------------------|-5-5---555-5555555--|  2x (whole verse)
D|--3-3---333-33---3333-|-5-5---555-5555555--|
A|--3-3---333-33---3333-|-3-3---333-3333333--|
E|--1-1---111-11---1111-|--------------------|
    v v   ^vv vv   v^v^   v v   ^vv vvvvvvv



e|------------------|-----------------|-----------------|------------------|
B|------------------|-----------------|-----------------|------------------|
G|------------------|-----------------|-7-7-7-7-7-7-7-7-|-7-7-7-7-7--------|
D|--5-5-5-5-5-5-5-5-|-5-5-5-5-5-------|-7-7-7-7-7-7-7-7-|-7-7-7-7-7--------|
A|--5-5-5-5-5-5-5-5-|-5-5-5-5-5-0-0-1-|-5-5-5-5-5-5-5-5-|-5-5-5-5-5-0-0-1--|
E|--3-3-3-3-3-3-3-3-|-3-3-3-3-3-------|-----------------|------------------|

e|------------------|-----------------|-----------------|------------------|
B|------------------|-----------------|-----------------|------------------|
G|------------------|-----------------|-5-5-5-5-5-5-5-5-|-5----------------|
D|--5-5-5-5-5-5-5-5-|-5-5-5-5-5-------|-5-5-5-5-5-5-5-5-|-5----------------|
A|--5-5-5-5-5-5-5-5-|-5-5-5-5-5-0-0-1-|-3-3-3-3-3-3-3-3-|-3----------------|
E|--3-3-3-3-3-3-3-3-|-3-3-3-3-3-------|-----------------|------------------|



e|---------------------|--------------------|--------------------|---------------------|
B|---------------------|--------------------|--------------------|---------------------|
G|---------------------|-5-5--5555-55--5555-|-7-7--7777-77--7777-|-5-5--5555-55--5555--|
D|--3-3--3333-33--3333-|-5-5--5555-55--5555-|-7-7--7777-77--7777-|-5-5--5555-55--5555--|
A|--3-3--3333-33--3333-|-3-3--3333-33--3333-|-5-5--5555-55--5555-|-3-3--3333-33--3333--|
E|--1-1--1111-11--1111-|--------------------|--------------------|---------------------|
    v v  v^vv vv  v^v^

e|---------------------|--------------------|
B|---------------------|--------------------|
G|---------------------|-5-5--5555-5555555--|
D|--3-3--3333-33--3333-|-5-5--5555-5555555--|
A|--3-3--3333-33--3333-|-3-3--3333-3333333--|
E|--1-1--1111-11--1111-|--------------------|
























Important: The song above is NOT stored on the Chordie server. The original song is hosted at www.guitaretab.com. Chordie works as a search engine and provides on-the-fly formatting. Chordie does not index songs against artists/composers will. To remove this song please click here.

This song is displayed as text-only. Transposing and tuning is only available for chordpro-songs.

Login - add to songbook

Rating click stars to rate

Layout
Accuracy

SHARE PAGE  




You need to log in to post comments