Guitar Tabs, Chords and Lyrics


Crush On Hillary  Misc. Unsigned Bands

--Tab from Lucas(SecondGreenShirt)-----



E|---------------------------|

B|---------------------------|
G|66666----------------------|
D|66666--8888----4444---6666-|
A|44444--8888----4444---6666-|
E|-------6666----2222---4444-|
[F#]obamas not gonna win
[G#]even if you take off all your clothes
Df
Hilliary 08
Bf
winning the debates
[F#]i know your crushin on obama well i
[G#]i've got a crush on Hillary

Df
2008
Bf
you're the sexiest candidate
[F#]theres no way were gonna lose
[G#]barack obama cant dance like you


Df Bf
E|--------------------------------------------------------------------------------------------|
B|--------4-6-4-------------------------------------------------------------------------------|
G|6666---6-----6------6-8-10-8-8-10-11-10-8-8-10-11-10-8-10-11-13-11-10-10-11-13-11-10-11-10--|
D|6666--6--------888-8------------------------------------------------------------------------|
A|4444-----------888--------------------------------------------------------------------------|
E|---------------666--------------------------------------------------------------------------|


Df
i don't have political views
Bf
but i know that i want you
[F#]those thighs those eyes yeah yeahhh
[G#]yeahhh

i've got a crush oh Hillary

Df
2008
Bf
you're the sexiest candidate
[F#]theres no way were gonna lose
[G#]i wish i was as cute as you..
Df
oh nooo
Bf
Iowas gone for shoo
[F#]guess which has more electoral votes
[G#]new Hampshire for the win
my mom is a republican
-------Bridge---------
E|------------------------------------------------------------------------------------------|
B|------------------------------------------------------------------------------------------|
G|------------------------------------------------------------------------------------------|
D|------------------------------------------------------------------------------------------|
A|-8-8-8-8-8-8-8-8-4-4-4-4-3-3-6-6----8-8-8-8-8-8-8-8-4-4-4-4-3-3-3-------------------------|
E|6-6-6-6-6-6-6-6-2-2-2-2-1-1-4-4----6-6-6-6-6-6-6-6-2-2-2-2-1-1-1--------------------------|



i've got a crush on Hillary

Df
2008
Bf
you're the sexiest candidate
[F#]2008
[G#]cause i've got a crush yeah i've got a crush on Hillary

--Tab from Lucas(SecondGreenShirt)-----				


Important: The song above is NOT stored on the Chordie server. The original song is hosted at www.guitaretab.com. Chordie works as a search engine and provides on-the-fly formatting. Chordie does not index songs against artists'/composers' will. To remove this song please click here.

Text color:
Chord color:
Chord grids: 
Font size:    
Page size: 

F# G#
variations - click chord images

Login - add to songbook

Transpose chords

Tuning

Rating click stars to rate

Layout
Accuracy

SHARE PAGE  




You need to log in to post comments