Guitar Tabs, Chords and Lyrics


Quarantine   Misc. Unsigned Bands



--------------------------------------------------------------------------------------------
QUARANTINE-Metal Interface 2009
--------------------------------------------------------------------------------------------
Album: Quarantine
Tabbed By: Nick Murphy
UG Profile: http://profile.ultimate-guitar.com/Metal+Interface/
Band Profile: http://artists.ultimate-guitar.com/metal-interface/
Myspace Band Profile: http://www.myspace.com/metalinterface

This is the quick album intro song. 
It involves a lot of string muting 
(Not to be confused with Palm Muting). 
MP3s on all of the profiles listed above.

Key:
||=Play the two pieces together
hb=Half bend
x=String Mute

e|-----------x--|
B|--------x--x--|
G|-----x--x-----|
D|-----x--------|
A|--x-----------|
E|--x-----------|X13
 ||
 ||
e|--------------|
B|--------------|
G|--------------|
D|--------------|
A|--4x----------|
E|--2x----------|X13


e|---------------------|
B|---------------------|
G|---------------------|
D|---------------------|
A|--4-4-4-5-5-5-7-7-7--|
E|--2-2-2-3-3-3-5-5-5--|X8
 ||
 ||
e|---------------------|
B|---------------------|
G|---------------------|
D|---------------------|
A|-Scratch-Scratch-Scr-|
E|-Fill----Fill----Fil-|

e|-----------------|
B|-----------------|
G|-----------------|
D|-----------------|
A|--4---4---4---4--|
E|--2---2---2---2--|


e|---------------------------------|
B|---------------------------------|
G|---------------------------------|
D|-----7---------------7-----------|
A|--------8-8-8-9---------8-8-8-7--|
E|--9---------------9--------------|X8
 ||
 ||
e|---------------------------------|
B|---------------------------------|
G|---------------------------------|
D|------------------7hb------------|
A|---------------------------------|
E|--9hb----------------------------|X8


e|---------------------------------------------------------------------------|
B|---------------------------------------------------------------------------|
G|---------------------------------------------------------------------------|
D|---------------------------------------------------------------------------|
A|--4-x-x-x-x-x-x-x-4-x-x-x-x-x-x-x-4-x-x-x-x-x-x-x-4-x-x-4-x-x-4-x-x-4-4----|
E|--2-x-x-x-x-x-x-x-2-x-x-x-x-x-x-x-2-x-x-x-x-x-x-x-2-x-x-2-x-x-2-x-x-2-2----|X3
 ||
 ||
e|---------------------------------------------------------------------------|
B|---------------------------------------------------------------------------|
G|---------------------------------------------------------------------------|
D|---------------------------------------------------------------------------|
A|----4-x-x-x-x-x-x-x-4-x-x-x-x-x-x-x-4-x-x-x-x-x-x-x-4-x-x-4-x-x-4-x-x-4-4--|
E|----2-x-x-x-x-x-x-x-2-x-x-x-x-x-x-x-2-x-x-x-x-x-x-x-2-x-x-2-x-x-2-x-x-2-2--|X3


Important: The song above is NOT stored on the Chordie server. The original song is hosted at www.guitaretab.com. Chordie works as a search engine and provides on-the-fly formatting. Chordie does not index songs against artists'/composers' will. To remove this song please click here.

This song is displayed as text-only. Transposing and tuning is only available for chordpro-songs.

Login - add to songbook

Rating click stars to rate

Layout
Accuracy

SHARE PAGE  




You need to log in to post comments