Guitar Tabs, Chords and Lyrics


At The Door   Misc. Unsigned Bands



this is the intro to at the door by an upcoming band, zander.
just thought i would post it for when they go national

zander.iuma.com - homepage

Baton Rouge, La USA

e|-------3-3------3-------------------3-3--------3-----5-3------
B|-------3-3--0-1-3--1-0--------------3-3--0-1-3---1-0----------
G|-----------------------0--------------------------------------
D|--------------------------------------------------------------
A|----2---------------------------3-----------------------------
E|--3---------------------------0-------------------------------     

                                                                    2x        

e|-------3-3------3-------------------3-3--3h5h3----------------
B|-------3-3--0-1-3--1-0--------------3-3--------5-3---3--------
G|-----------------------0---------------------------4---4-2-0--
D|--------------------------------------------------------------
A|----2---------------------------3-----------------------------


Important: The song above is NOT stored on the Chordie server. The original song is hosted at www.guitaretab.com. Chordie works as a search engine and provides on-the-fly formatting. Chordie does not index songs against artists'/composers' will. To remove this song please click here.

This song is displayed as text-only. Transposing and tuning is only available for chordpro-songs.

Login - add to songbook

Rating click stars to rate

Layout
Accuracy

SHARE PAGE  




You need to log in to post comments