Guitar Tabs, Chords and Lyrics


Army Of The Future   Misc. Unsigned Bands



CEASEFIRE IS A LOCAL BAND
THE URL IS: expage.com/justice
ALBUM: FUEL FOR AN ASSASSINATION//RHETORIC FOR A PROTEST
BOTH GUITARS COINCIDE WITH BASS INTRO
e-1--
b-1--
g-2-2
d-3-3
a-3-3
e-1-3
PHRASE 1:
e----------1
b----------3
g--------3-2
d-555555-X--
a-555555-1--
e-333333----
NO PLAY FOR VERSE
IN BETWEEN VERSES:
e----------------------
b----------------------
g-99-9--77-7--55-5--(3)
d-XX-X--XX-X--XX-X--(X)
a-77-7--55-5--33-3--(1)
e----------------------
CHORUS:
e-5-5-555------
b-5-5-555------
g-6-6-666-7-7-9
d-7-X-777-X-X-X
a-7-X-777-5-0-7


Important: The song above is NOT stored on the Chordie server. The original song is hosted at www.guitaretab.com. Chordie works as a search engine and provides on-the-fly formatting. Chordie does not index songs against artists'/composers' will. To remove this song please click here.

This song is displayed as text-only. Transposing and tuning is only available for chordpro-songs.

Login - add to songbook

Rating click stars to rate

Layout
Accuracy

SHARE PAGE  




You need to log in to post comments