Guitar Tabs, Chords and Lyrics


Angels Let Go   Misc. Unsigned Bands



This song I made up not long ago for my un-named band. This is my first tab that im
on ultimate-guitar. Since im new here, I wanted everybody to get a good glimpse in what kind
music I write. This is my 3rd song I wrote. I have the lyrics also and it will be 
under the song. Here it goes...

Intro:
                         acoustic
  slow and with motion
E|-4--4--4--4--0--0--4-|
B|-4-----4-----0-----4-|
G|-6-----5-----1-----3-|LET IT RING
D|-6-----5-----2-----4-|
A|-4-----6-----2-----4-|
E|-4-----4-----0-----2-|

Verse:
                                Distorsion
     a little bit of swing
E|-------------------2-2--4-4-|
B|-------------------2-2--4-4-|
G|-6-6-6-6-6-6-6-6---3-3--5-5-|PLAY IT TWICE
D|-x-x-x-x-x-x-x-x---4-4--6-6-|
A|-4-4-4-4-4-4-4-4---4-4--6-6-|
E|-------------------2-2--4-4-|


PreChorus/Bridge:
                            Distorsion
         Fast
E|-4444444444444444-|
B|-4444444444444444-|
G|-6666666666666666-|
D|-6666666666666666-|
A|-4444444444444444-|
E|-4444444444444444-|

E|-44444444---2222222222222222-|
B|-44444444---2222222222222222-|
G|-55555555---3333333333333333-|
D|-66666666---4444444444444444-|
A|-66666666---4444444444444444-|
E|-44444444---2222222222222222-|

Chorus:
                                        Distorsion
E|-44444--9-9-9-9-9---44444--22222--|
B|-66666--9-9-9-9-9---44444--22222--|
G|-66666--1111111111--55555--33333--| PLAY IT FOUR TIMES
D|-66666--1111111111--66666--44444--|
A|-44444--9-9-9-9-9---66666--44444--|
E|-44444--9-9-9-9-9---44444--22222--|

Verse:
                                 Distorsion
    a little bit of swing
E|-------------------2-2--4-4-|
B|-------------------2-2--4-4-|
G|-6-6-6-6-6-6-6-6---3-3--5-5-| PLAY IT TWICE
D|-x-x-x-x-x-x-x-x---4-4--6-6-|
A|-4-4-4-4-4-4-4-4---4-4--6-6-|
E|-------------------2-2--4-4-|

PreChorus/Bridge 2:
                                Distorsion
       Fast
E|-4444444444444444--44444444--22222222-|
B|-4444444444444444--44444444--22222222-|
G|-6666666666666666--55555555--33333333-|
D|-6666666666666666--66666666--44444444-|
A|-4444444444444444--66666666--44444444-|
E|-4444444444444444--44444444--22222222-|

E|-4444444444444444--44444444--2222222222222222-|
B|-4444444444444444--44444444--2222222222222222-|
G|-6666666666666666--55555555--3333333333333333-|
D|-6666666666666666--66666666--4444444444444444-|
A|-4444444444444444--66666666--4444444444444444-|
E|-4444444444444444--44444444--2222222222222222-|

Chorus:
                                        Distorsion
E|-44444--9-9-9-9-9---44444--22222--|
B|-66666--9-9-9-9-9---44444--22222--|
G|-66666--1111111111--55555--33333--| PLAY IT FOUR TIMES
D|-66666--1111111111--66666--44444--|
A|-44444--9-9-9-9-9---66666--44444--|
E|-44444--9-9-9-9-9---44444--22222--|

Solo Bridge:
                                                     Distorsion
E|-----------------------------------------|
B|-----------------------------------------|
G|-6666666666666666------------------------|
D|-6666666666666666--66666666--44444444----|
A|-4444444444444444--66666666--44444444----|
E|-------------------44444444--22222222----|
  pm---------------------------------------|

E|---------------------------------------------------|
B|---------------------------------------------------|
G|-6666666666666666----------------------------------| LET IT RING
D|-6666666666666666--66666666--4444444444444444--4---|
A|-4444444444444444--66666666--4444444444444444--4---|
E|-------------------44444444--2222222222222222--2---|
  pm-------------------------------------------------|

Chorus 2:
                                       Distorsion
E|-44444--9-9-9-9-9---44444--22222-|
B|-66666--9-9-9-9-9---44444--22222-|
G|-66666--1111111111--55555--33333-|
D|-66666--1111111111--66666--44444-|
A|-44444--9-9-9-9-9---66666--44444-|
E|-44444--9-9-9-9-9---44444--22222-|

   slow and with motion
E|-4-4-4---9--9--9----4-4-4---2-2-2-|
B|-6-6-6---9--9--9----4-4-4---2-2-2-|
G|-6-6-6---11-11-11---5-5-5---3-3-3-| PLAY IT TWICE
D|-6-6-6---11-11-11---6-6-6---4-4-4-|
A|-4-4-4---9--9--9----6-6-6---4-4-4-|
E|-4-4-4---9--9--9----4-4-4---2-2-2-|

End Verse/Outro:
                            Acoustic
E|-4---4---0---2---4---4--|
B|-4---4---0---2---4---4--|
G|-6---5---1---3---6---5--|
D|-6---6---2---4---6---6--|
A|-4---6---2---4---4---6--|
E|-4---4---0---2---4---4--|

                           Distorsion
E|-00000000--22222222--4-|
B|-00000000--22222222--4-|
G|-11111111--33333333--6-| LET IT RING
D|-22222222--44444444--6-|
A|-22222222--44444444--4-|


Important: The song above is NOT stored on the Chordie server. The original song is hosted at www.guitaretab.com. Chordie works as a search engine and provides on-the-fly formatting. Chordie does not index songs against artists'/composers' will. To remove this song please click here.

This song is displayed as text-only. Transposing and tuning is only available for chordpro-songs.

Login - add to songbook

Rating click stars to rate

Layout
Accuracy

SHARE PAGE  




You need to log in to post comments