Guitar Tabs, Chords and Lyrics


Wonderer  Misc. Unsigned Bands

E|-------------------- 3-----------------3---------0----------3-|


A|-------3-------------------------------3---------3----------2-|


D|-------2---2-----------0---------------2---------2----------0-|

G|---------0-----------0--0--------------0---------0----------0-|
B|-------------0-----------0-------------1---------1----------0-|
e|---------------0-----------------------0---------3----------3-|
Now [C]I've been searching for a while
And [G]as i sit, i strain to smile
My m[F]ind takes stand for my life's trial
B7th
Which bathes in pools of my denial


Bridge;
My eyes [Am]cant see and my ears cant hear
And i fi[Em]nd myself wondering why im still here


Chorus;
[Am]You turned aw[F]ay fro[E]m life j[Am]ust one too m[F]any t[E]imes
[Am]And now your [F]left o[E]utside a[Am]nd committing[F] crim[E]es


Musical interlude;
E|--------------------------------------------------------|
A|--------------------------------------------------------|
D|--------------------------------------------------------|
G|----2-----2------------------------5-----2--------------|
B|-------1-----1----3-slide-5---3-------------------------|
e|--------------------------------------------------------|


Verse;
S[C]ome they break their handed plates
W[G]hilst others fall as they're too late
A[F]nd so we're forced to sit and wait
B7th
And contemplate our crafted fate


Bridge;
My eyes [Am]cant see and my ears cant hear
And i fi[Em]nd myself wondering why im still here


Verse;
A[C] prisoner caged alone he lies
A[G] mother weeps of household ties
T[F]he student failed despite his tries
B7th
Now who can hear their pleas and cries?


Bridge;
My eyes [Am]cant see and my ears cant hear
And i fi[Em]nd myself wondering why im still here


Chorus;
[Am]You turned aw[F]ay fro[E]m life j[Am]ust one too m[F]any t[E]imes
[Am]And now your [F]left o[E]utside a[Am]nd committing[F] crim[E]es


Musical interlude;
E|--------------------------------------------------------|
A|--------------------------------------------------------|
D|--------------------------------------------------------|
G|----2-----2------------------------5-----2--------------|
B|-------1-----1----3-slide-5---3-------------------------|
e|--------------------------------------------------------|



Verse;
I[C]n God we trust the light
B[G]ut for some it fades to dark like night
M[F]y heighbours fall was to my delight
B7th
The thoughts are black, but one is white

Bridge;
My eyes [Am]cant see and my ears cant hear
And i fi[Em]nd myself wondering why im still here


Final Appregio of C (but without 1st finger on 1st fret play open)


Important: The song above is NOT stored on the Chordie server. The original song is hosted at www.guitaretab.com. Chordie works as a search engine and provides on-the-fly formatting. Chordie does not index songs against artists'/composers' will. To remove this song please click here.

Text color:
Chord color:
Chord grids: 
Font size:    
Page size: 

Am C E Em F G
variations - click chord images

Login - add to songbook

Transpose chords

Tuning

Rating click stars to rate

Layout
Accuracy

SHARE PAGE  




You need to log in to post comments