Guitar Tabs, Chords and Lyrics


Dont Know Why   Various Artists



e----------------------------------
b----------------------------------
g---------------------------------- 4x (let ring on 4th)
d-----9----------------------9-0---
a---7---10-9-----------------9-7---
e------------10-10--10-10-10-------

e----------------------------------------------------------------------------
b----------------------------------------------------------------------------
g----------------------------------------------------------------------------
d----------------------------------------------------------------------------
a---9-9--9-9-9-9-7-7--7-7-7-7-5-5--5-5-5-5-9---------------------------------


Important: The song above is NOT stored on the Chordie server. The original song is hosted at www.guitaretab.com. Chordie works as a search engine and provides on-the-fly formatting. Chordie does not index songs against artists'/composers' will. To remove this song please click here.

This song is displayed as text-only. Transposing and tuning is only available for chordpro-songs.

Login - add to songbook

Rating click stars to rate

Layout
Accuracy

SHARE PAGE  




You need to log in to post comments