Guitar Tabs, Chords and Lyrics


Little Guitar Riffs   Various Artists



just a little riff i made up, i think its cool
play it kinda fast and leave a space between each third andfourth power chord

e---------------------------   |
b---------------------------   |
g-----5555/7777/9999/101010-  .|
d-----0000/0000/0000/0-0-0--  .|
a---------------------------   |
e---------------------------   |

/=slide


e--4-4/---3-3/---2-2/---1----
b--4-4/---3-3/---2-2/---1----
g--5-5/---4-4/---3-3/---2----          /=slide
d--6-6/---5-4/---4-4/---3----
a--6-6/---5-5/---4-4/---3----


Important: The song above is NOT stored on the Chordie server. The original song is hosted at www.guitaretab.com. Chordie works as a search engine and provides on-the-fly formatting. Chordie does not index songs against artists'/composers' will. To remove this song please click here.

This song is displayed as text-only. Transposing and tuning is only available for chordpro-songs.

Login - add to songbook

Rating click stars to rate

Layout
Accuracy

SHARE PAGE  




You need to log in to post comments