Chordie logo

Boogie Woogie   Various Artists



Tuning: standard eBGDAE

Very easy to play, sounds good fast or slow, it has a Country-Bluesy "twang" to it, I 
it fun to play.  It helps with speed, I play it to warm-up.  Makes beginners sound like 
(repeat)
-Josef (HalfBakedJM)

e|-----------------------------------------------------------------------------------------------|
b|-----------------------------------------------------------------------------------------------|
g|----------------------------------------0-2-3-2-0----------------------------------------------|
d|-----0-2-3-2-0---------0-2-3-2-0------2-----------2------0-2-3-2-0-----------------------------|
a|---2------------2----2-----------2--3------------------2-----------2---------------------------|
e|-3-----------------3---------------------------------3-----------------------------------------|

(Modified version)  I experimented with this song by adding in the "double" on each 
I think it sounds better and & adds an extra "umph" to the song.  You decide...

e|-----------------------------------------------------------------------------------------------|
b|-----------------------------------------------------------------------------------------------|
g|-----------------------------------------------------00-22-33-22-00----------------------------|
d|-----00-22-33-22-00---------00-22-33-22-00--------22----------------22------00-22-33-22-00-----|
a|---22--------------22----22----------------22--33-------------------------22---------------22--|


Important: The song above is NOT stored on the Chordie server. The original song is hosted at www.guitaretab.com. Chordie works as a search engine and provides on-the-fly formatting. Chordie does not index songs against artists/composers will. To remove this song please click here.

This song is displayed as text-only. Transposing and tuning is only available for chordpro-songs.

Login - add to songbook

Rating click stars to rate

Layout
Accuracy

SHARE PAGE  

You need to log in to post comments

ten2seven (report)

then to finish it off do this
|----------------------------------------------------------------------|
|----------------------------------------------------------------------|
|----------------------------------------------------------------------|
|-------------------4-4----6-4-------------------2-2----4-2------------|
|--2-2----6-6--------------------0-0----4-4----------------------------|
|----------------------------------------------------------------------|