Guitar Tabs, Chords and Lyrics


Absolutely   Nine Days



=======================================================================
Song: Absolutely (Story of a Girl) Solo
Band: Nine Days
Album: The Madding Crowd
Tuning: Standard
Tabbed by: Jake Something (sloppyjoe24)

h = hammer on
p = pull off
^ = bend
r = release
t = tap
~ = let it ring
/ = slide up
\ = slide down
. = palm mute
+ = harmonic
v = vibrato
()= optional 

=======================================================================

Guitar I: Solo

e|-----X-X-X-X-------------------X-X-X-X----10-12-10--10--10-10--|
B|--10-X-X-X-X-12-12-12-10-10h12-X-X-X-X-12---------12-----------|
G|---------------------------------------------------------------|
D|---------------------------------------------------------------|
A|---------------------------------------------------------------|
E|---------------------------------------------------------------|

e|--10--/19-19-17-15--12-----------------------------------------|
B|----------------------15--12-12p10--10--------11^~~~-----------|
G|----------------------------------12----12----10^~~~-----------|
D|---------------------------------------------------------------|
A|---------------------------------------------------------------|
E|---------------------------------------------------------------|

e|---------------------------------------------------------------|
B|---------------------------------------------------------------|
G|---------------------------------7-----7-7--7-7-7---7----------|
D|--12-12-12-12--------------------9/10--9-9--7-7-7p5-7-/9-------|
A|--------------14-12-10--10--10---------------------------------|
E|--------------------------12-----------------------------------|

e|---------------------------------------------------------------|
B|--8-8-8-8--1010-8--8-8-8-8-8--8-8-8-8-10--10^-10^-10--8--------|
G|--7-7-7-7--7-7--7--7-7-7-7-7--7-7-7-7-7---7^--7^--7---7--------|
D|---------------------------------------------------------------|
A|---------------------------------------------------------------|
E|---------------------------------------------------------------|

e|--15-15-15-15--12-12--10-----10/12---12/15-15-15-15-15-15-15---|
B|--15-15-15-15--12-12--10--12-10/12---12/15-15-15-15-15-15-15---|
G|---------------------------------------------------------------|
D|---------------------------------------------------------------|
A|---------------------------------------------------------------|
E|---------------------------------------------------------------|

e|--15-15--12-X-10/----------------------------------------------|
B|--15-15--12-X-10/---^10rp8--8-10-8-8---------------------------|
G|---------------------------9-------9--9\0----------------------|
D|---------------------------------------------------------------|
A|---------------------------------------------------------------|
E|---------------------------------------------------------------|

e|---------------------------------------------------------------|
B|---------------------------------------------------------------|
G|--12-12--------------------------------------------------------|
D|--12-12-14--14-14p12-12p9-9p7-5--------------------------------|
A|---------------------------------------------------------------|
E|---------------------------------------------------------------|


=======================================================================

Guitar II: Solo

Play Chords Em7, Dadd4/F#, G, A7sus4 >x1
            Em7, Dadd4/F#, A7sus     >x1
            Bm, Cadd9, G, D          >x4

=======================================================================

Key:

    Em7   Dadd4/F#   G    A7sus4    Bm     Cadd9     D
e|---3---|---3---|---3---|---3---|---2---|---3---|---2---|
B|---3---|---3---|---3---|---3---|---3---|---3---|---3---|
G|---0---|---2---|---0---|---2---|---4---|---0---|---2---|
D|---2---|---0---|---0---|---2---|---4---|---2---|---0---|
A|---2---|---0---|---2---|---0---|---2---|---3---|-------|
E|---0---|---2---|---3---|-------|-------|-------|-------|

=======================================================================
            




Important: The song above is NOT stored on the Chordie server. The original song is hosted at www.guitaretab.com. Chordie works as a search engine and provides on-the-fly formatting. Chordie does not index songs against artists'/composers' will. To remove this song please click here.

This song is displayed as text-only. Transposing and tuning is only available for chordpro-songs.

Login - add to songbook

Rating click stars to rate

Layout
Accuracy

SHARE PAGE  




You need to log in to post comments