eToCache5 = ""; ?> Magics In The Makeup by No Doubt - guitar chords, guitar tabs and lyrics - chordie

Magics In The Makeup

No Doubt

-------------10---------------------------10----------------

----10----10----10----10---------10----10----10-------------
-------10----------10---------------10----------10--9-------
-12--------------------------12-----------------------------
------------------------------------------------------------
------------------------------------------------------------
-------------------------------------------
----------8------------8-------------------
-9-9----9---9----9---7-----9--7-7---9------
-----10-------10---------9--------9--------
-------------------------------------------
-------------------------------------------
----------------------------------------------------
-5-------5---------------5-------------8-8----------
----5-------5---------------5-----------------------
-------7-------5---5-5h7-------5----5-------5-------
----------------------------------------------------
----------------------------------------------------
------------------------------------------------
-5--------5-------------------------5-----------
----5--------5----------------4-----------------
-------7--------5---5-5h7-7------5--------------
------------------------------------------------
------------------------------------------------

 FAm7DmCF
       -1--------0--------1----------------1----
       ---1--------1--------3------1-------1----
       -----2--------0--------2------0-----2---- strum last
       -3--------2--------0------------2---3---- chord
       --------------------------3---------3----
       ------------------------------------1----

"Ma - ke up's all off"

 FAm7DmCG
       -1--------0--------1----------------3----
       ---1--------1--------3------1-------3----
       -----2--------0--------2------0-----0----
       -3--------2--------0------------2---0---- strum last
       --------------------------3---------2---- chord
       ------------------------------------3----

"Who am I?"

Bride - Play intro riff
(number above the tab indicates what note on the b string
the bent note has to sound like)

10 13 13 13 12 12 10 10 10 9 8
-----------------------------10\------------------------------------------
-8b--11b-11--11--11--11--10--------3--5--6--8b-8b--8--6-5-6-6/3--8b-------
--------------------------------------------------------------------------
--------------------------------------------------------------------------
--------------------------------------------------------------------------
--------------------------------------------------------------------------


Chorus played once after this, and then goes into:

 FCG
 Magic's in the makeup    
 FCG
But I wanna be the real thing    


Am7 C Dm F G
variations - click chord images
Transpose chords:
Tuning:
Cool service:
View: Size:
A  A  A
Rating:
Layout:
  • Currently 2.5/5 Stars.
  • 1
  • 2
  • 3
  • 4
  • 5
 
Accuracy:
  • Currently 2.9/5 Stars.
  • 1
  • 2
  • 3
  • 4
  • 5
 
click stars to rate
Chordie recommends:
Learn to play this song & others via video guitar lessons at JamPlay.com
Songbook:
Login to add this song to your songbook
Support the artist
Preview/buy this song
MSN Music
Why this non-profit ad?

 
login to add comments/video/corrections