Great song, great band and great video.
* - repeat chord a few times x - scratch (lift fingers off the strings only slightly to mute it a bit)
intro/verse
|-----------------------------------| |-7--8--7-7-x-x-x-x-----------------| |-7--7--7-7-x-x-x-x-----------------| |-7--7--7-7-x-x-x-x-3--3--5--5--5-5-| |-5--5--5-5-x-x-x-x-3--3--5--5--5-5-| |-------------------1--1--3--3--3-3-|
chorus 1
|--------------| |--------------| |-7*-7*-5*-----| |-7*-7*-5*-5*--| |-5*-5*-3*-5*--| |----------3*--|
for the "..or a playground.." part, change to
|---------------------------| |---------------------------| |-7*-7*-10*-12*-------------| |-7*-7*-10*-12*-8*-8*-7*-7--| |-5*-5*--8*-10*-8*-8*-7*-7--| |---------------6*-6*-5*-5--|
solo
|-10-----------10---------------------13--13-13-13-13--13-15-15-15-15-15---- |-10--10-------10----------------------x---x--x--x--x---x--x--x--x--x--x-13- |--------12-12--------12-10-12-10-----10--10-10-10-10--10-12-12-12-12-12-12- |---------------------------------12---------------------------------------- |--------------------------------------------------------------------------- |---------------------------------------------------------------------------
---------------------------------------------------------------------- -13/15-15-15-15\13-13-13--15-15-15-15\13-13-13--13-/18-18-18-18-18-18- -12/14-14-14-14\12-12-12--14-14-14-14\12-12-12--12-/17-17-17-17-17-17- ---------------------------------------------------------------------- ---------------------------------------------------------------------- ----------------------------------------------------------------------
--------------17-17-20b--20b--20b--20-17-------------------------------- -20-20-20--20----------------------------18----------------------------- --------------------------------------------19--19--19--19\--7---7--7-9- -------------------------------------------------------------x---x--x-x- -------------------------------------------------------------5---5--5-7- ------------------------------------------------------------------------
--------------------------------------------------| --------------------------------------------------| --9-9-9-9/10--9--10--10-10--12---12-12--12--------| --x-x-x-x/-x--x---x---x--x---x----x--x---x--------| --7-7-7-7/-8--7---8---8--8--10---10-10--10--10-10-| --------------------------------------------------|
|------------------------------------------------/10-10-10-10-10-10-10-10- |-10b--10b--10b--10b--13b------------------------/-x--x--x--x--x--x--x--x- |-12b--12b--12b--12b--15b---15b--15--------------/-7--7--7--7--7--7--7--7- |-----------------------------------15b-15-13----------------------------- |---------------------------------------------15-------------------------- |-------------------------------------------------------------------------
-10-10-10-10-10-10-10------------------------------------------------- --x--x--x--x--x--x--x--5b--5b--5b--5b--8b--------------------------10- --7--7--7--7--7--7--7--7b--7b--7b--7b--10b---10b--10-12b--12-10----10- ----------------------------------------------------------------12---- ---------------------------------------------------------------------- ----------------------------------------------------------------------
-------------------------------------------------------------------------| -11--11-11-11-11--11--11-11-11-11-11-11-11-10--10-10-10-10-10--10-10-10\-| --x---x--x--x--x---x---x--x--x--x--x--x--x--x---x--x--x--x--x---x--x--x\-| --8---8--8--8--8---8---8--8--8--8--8--8--8--7---7--7--7--7--7---7--7--7\-| -------------------------------------------------------------------------| -------------------------------------------------------------------------|
background to second solo
|----------------------------------------------------------------| |------------5--5---------7--7--7-8-7--7--7--7-------------5--5--| |------------5--5---------7--7--7-7-7--7--7--7-------------5--5--| |-7--7--7-7--5--5--5-5-5--7--7--7-7-7--7--7--7--7--7--7-7--5--5--| |-7--7--7-7--3--3--5-5-5--5--5--5-5-5--5--5--5--7--7--7-7--3--3--| |-5--5--5-5--------3-3-3------------------------5--5--5-5--------|
|---------------------------------|
|---------------------------------| |---------------------------------| |-5-5-5--8*-8*-8*-8*-7*-7*-7*-7*--| |-5-5-5--8*-8*-8*-8*-7*-7*-7*-7*--| |-3-3-3--6*-6*-6*-6*-5*-5*-5*-5*--|
the "..or a playground..." part changes to
|---------------------------------------------------| |---------------------------------------------------| |-7*-7*-10*-12*-------------------------------------| |-7*-7*-10*-12*-8*-8*-7*-7-8*-8*-7*-7*-8*-8*-7*-7*--| |-5*-5*--8*-10*-8*-8*-7*-7-8*-8*-7*-7*-8*-8*-7*-7*--| |---------------6*-6*-5*-5-6*-6*-5*-5*-6*-6*-5*-5*--|
final chord
|----| |-7--| |-7--| |-7--| |-5--| |----|
Lyrics: Look at me I'm fallin' Off of a cliff now I can still hear my mama yelling No No No But the words mean nothing Can't catch up to me now And the view is so beautiful All the way down When I was a little boy Suckin' juice from a bottle Believing my perceptions were oh so real But I don't know nothing Still knowing nothing Was just enough for me to know the way I feel
This is life What a fucked up thing we do What a nightmare come true Or a playground if we choose And I choose
Look at me I'm swollen Like a banana fish now I'm never gonna make it out of my hole But I keep on laughing Doesn't really matter There's dozens of reasons for explaining my soul When I was a teenager Suckin' booze with the Vatos Discussing who was gonna live to be 21 They said they wouldn't make it They didn't make it We're all naked when the day is said and done
This is life What a fucked up thing we do What a nightmare come true Or a playground if we choose And I choose
Don't know who made this all come true But now while you're here You just gotta do what you gotta do Now if I wasn't such a weenie Do you think you'd still love me Pretending I'm an airplane on the living Room floor But like a lovely generator You stand right by me And if words were wisdom I'd be talking Even more
So I keep on falling As I'm looking back above me Watching as my mama just becomes a little dot Now I'm like DeNiro I'm amarillo And I'll never know when I hit the ground
Hope it lives up to your expectations. E-mail = bobby544@mail2rob.com











variations - click chord images
Transpose chords:
Tuning:
Cool service:
View: Size:
A  A  A
Rating:
Layout:
  • Currently 2.5/5 Stars.
  • 1
  • 2
  • 3
  • 4
  • 5
 
Accuracy:
  • Currently 2.6/5 Stars.
  • 1
  • 2
  • 3
  • 4
  • 5
 
click stars to rate
Chordie recommends:
Check out JamPlay.com for online video guitar lessons
Songbook:
Login to add this song to your songbook
Support the artist
Preview/buy this song
MSN Music
Why this non-profit ad?

 
login to add comments/video/corrections