Guitar Tabs, Chords and Lyrics


Another Dead End Story  One Man Army

e--------------------------------|


B--------------------------------|


G—3b—-3b—-3b-3br-1----1-3-3v--1--|

D-------------------3------------|
A--------------------------------|
E--------------------------------|
e-----------------------------------|------------------------------------|
B-----------------------------------|------------------------------------|
G-----------------------------------|--8---8---8-------------------------|
D—-3-3-3-3-3-3-3-3-3-3-3-3-3-3-3-3--|--8-8-8-8-8-8—-3-3-3-3-3-3-3-3-3-3--|
A—-3-3-3-3-3-3-3-3-3-3-3-3-3-3-3-3--|--6-8-6-8-6-8--3-3-3-3-3-3-3-3-3-3--|
E—-1-1-1-1-1-1-1-1-1-1-1-1-1-1-1-1--|----6---6---6—-1-1-1-1-1-1-1-1-1-1--|
It's been a [F]long time comin', but it's finally come to this...
You [Eb]win [Bb]some, you [Eb]lose [Bb]some, it's [Eb]hit [Bb]or [F]miss
With the [F]shadow of failure, my back bears the burden for it all
I'm [Eb]just like the [Bb]rest, and [Eb]part of the [Bb]prob[F]lem
Chorus:
Well [Bb]I'm always on the wrong [F]streets- Another dead end story!
The [Bb]cars never, they never stop for [F]me- Another dead end story!
Bb F C,C,C
Biding my time, my time to strike- Another dead end story!


Riff 1

Verse 2:
I've been [F]down for the count, but I always come back for more
I just [Eb]pick[Bb] my[Eb]self up [Eb]off [Bb]the [F]floor
I've been [F]marked by the bruises of a bullet that never leaves me dead
So I can [Eb]suf[Bb]fer the [Eb]pain [Bb]ove[Eb]r  [Bb] ag[F]ain

Chorus x1

Solo:
e----1--1---1--1---1------------------------------------------------|
B----1--1---1--1---1------------------------------------------------|
G--3b-3b--3b-3b--3b-------------------------------------------------|
D---------------------2---------0--0-1--0---------------------------|
A-----------------------5p3-3-------------3-------0--1-1-0---0-1/3--|
E----------------------------------------------1-----------1--------|
e---------------------------1-1-1-1--|
B---------------------------1-1-1-1--|
G---------------5-3-2-----3----------|
D--2-5-3-2-3--3-------3--------------|
A------------------------------------|
E------------------------------------|


Outro Chorus:
Well [Bb]it's always the wrong time wrong [F]place- Another dead end story!
The [Bb]right names but the wrong [F]streets- Another dead end story!
Bb F C,C,C
It's the same old useless news to me- Another dead end story!

Riff 1 x2

That's it! For suggestions, corrections, and requests, email me:
oddmenout4@yahoo.com

Important: The song above is NOT stored on the Chordie server. The original song is hosted at www.guitaretab.com. Chordie works as a search engine and provides on-the-fly formatting. Chordie does not index songs against artists'/composers' will. To remove this song please click here.

Text color:
Chord color:
Chord grids: 
Font size:    
Page size: 

Bb Eb F
variations - click chord images

Login - add to songbook

Transpose chords

Tuning

Rating click stars to rate

Layout
Accuracy

SHARE PAGE  




You need to log in to post comments