Chordie logo

ibig Koymuli Mong Pagbigyan  Orient Pearl

Intro:[A-F#m-D-E] [2x]
 e------------------------|
 b------------------------|
 g--4/6-6/7-6-4-4/6-------|
 d--4/6-6/7-6-4-4/6-------|
 a------------------------|
 e------------------------|

Verse 1:
[A]Ang panahong sinayang k[F#m]o pasakit nadinanas mo
Noo'y 'di ko na[D]kita ang 'yong pagduru[E]sa
'[A]Di kaya ng alaala buhayin ang pagnana[F#m]sa
Ngunit sa[D]bihin mo sa'kin kung pa'nong
Pupunu[E]an ang pagkukulang ko
Chorus:
Pag-ibig [D]ko'y muli [A]mong pagbig[E]yan
Upang ma[D]bawi ang [A]mga kasa[E]lanan
Pag-ibig [D]ko'y muli [A]mong pagbig[E]yan
Sana'y ma[D]laman mo ang ni[Dsus]nanais ko
Verse 2:[A-F#m-D-E] [2x]
Sa pangarap na sinira ko
Kulang na pambayad ang buhay ko
Ang isip ko'y liyo sumuko sa tukso at kamunduhan
Ako'y naging isang hangal
Isinuko mo ang 'yong dangal
Ngunit paano ba mababawi ba
Ang nagawa kong mga pagkakasala
Chorus:
Pag-ibig [D]ko'y muli [A]mong pagbig[E]yan
Upang ma[D]bawi ang [A]mga kasa[E]lanan
Pag-ibig [D]ko'y muli [A]mong pagbig[E]yan
Sana'y ma[D]laman mo ang ni[Dsus]nanais ko
Adlib:[A-F#m-D-E] [2x]
 e----------------------------------------------|
 b----------------------------------------------|
 g-----2---2-4-4-2------------2---2h4-4-(6)-(6)-|
 d-2h4---4----------------2-4---4---------------|
 a----------------------------------------------|
 e----------------------------------------------|
 e----------------------7-5-4-4h5p4-4----------------------|
 b-----5-5/7/5-(7)-(7)-----------------5/7-7--7-9-10-10-\9-|
 g-4h6-----------------------------------------------------|
 d---------------------------------------------------------|
 a---------------------------------------------------------|
 e---------------------------------------------------------|
 e-14-17-14-17-14-17-14-17-14-------14p12-12-12------------------|
 b----------------------------15----------------15-15-15-15p1414-|
 g-------------------------------14------------------------------|
 d---------------------------------------------------------------|
 a---------------------------------------------------------------|
 e---------------------------------------------------------------|
 e--------------------------------------------------14-16-16-17-|
 b-15p14-12-12/14-12h14p12--------------14-15-15-17-------------|
 g-------------------------14-----14-16-------------------------|
 d--------------------------------------------------------------|
 a--------------------------------------------------------------|
 e--------------------------------------------------------------|
 e-17-16-14-(14)-(14)12---------------------12----|
 b----------------------15-14-12/14-12-(12)----12-|
 g------------------------------------------------|
 d------------------------------------------------|
 a------------------------------------------------|
 e------------------------------------------------|
 e--------7-7/14-14-14-14-14-(12)-19b-|
 b---7-10-----------------------------|
 g-9----------------------------------|
 d------------------------------------|
 a------------------------------------|
 e------------------------------------|

Chorus:
Pag-ibig [D]ko'y muli [A]mong pagbig[E]yan
Upang ma[D]bawi ang [A]mga kasa[E]lanan
Pag-ibig [D]ko'y muli [A]mong pagbig[E]yan
Sana'y ma[D]laman mo ang ni[Dsus]nanais ko

post na lang kaung comment...
frienster users.....add nyo ko...j_lipio@yahoo.com
pm nyo ko kung mganda....














Important: The song above is NOT stored on the Chordie server. The original song is hosted at www.guitaretab.com. Chordie works as a search engine and provides on-the-fly formatting. Chordie does not index songs against artists/composers will. To remove this song please click here.

A D Dsus E F#m
variations - click chord images

Login - add to songbook

Transpose chords

Tuning

Rating click stars to rate

Layout
Accuracy

SHARE PAGE  

You need to log in to post comments