Guitar Tabs, Chords and Lyrics


Dock Of The Bay  Otis Redding

e|---------------------------------------3----3---3-----|


B|---------------------------------------3----3---3-----|


G|---------------------------------------4----4---4-----|

D|---------------------------------------5--5---5---5---|
A|-------5-5------5-5------5-5------5-5--5--5---5---5---|
E|---3--3-----3--3-----3--3-----3--3-----3--3---3---3---|
                                    [D] [D] [D] 
U U U U U
e|---7----7---7-----8------8----7-6-5----5---5----------|
B|---7----7---7-----8------8----7-6-5----5---5----------|
G|---8----8---8-----9------9----8-7-6----6---6----------|
D|---9--9---9---9---10--10---10-9-8-7--7---7---7--------|(x2)
A|---9--9---9---9---10--10---10-9-8-7--7---7---7--------|
E|---7--7---7---9---8---8----8--7-6-5--5---5---5--------|

        [D]    [D]    [D]        [D]     [D]       [D] [D] [D] 

U U U U U U
e|---3----3---3----7----7---7----3----3---3-------------|
B|---3----3---3----7----7---7----3----3---3-------------|
G|---4----4---4----8----8---8----4----4---4-------------|
D|---5--5---5---5--9--9---9---9--5--5---5---5-----------|
A|---5--5---5---5--9--9---9---9--5--5---5---5-----------|
E|---3--3---3---3--7--7---7---7--3--3---3---3-----------|

        [D]    [D]    [D]      [D]    [D]    [D]      [D] [D] [D] 

U U U U U U
e|---0----0---0----3----3---3----0----0---0-------------|
B|---0----0---0----3----3---3----2----2---2-------------|
G|---1----1---1----4----4---4----2----2---2-------------|
D|---2--2---2---2--5--5---5---5--2--2---2---2-----------|
A|---2--2---2---2--5--5---5---5--0--0---0---0-----------|
E|---0--0---0---0--3--3---3---3--0--0---0---0-----------|

        [D]    [D]    [D]      [D]    [D]    [D]      [D] [D] [D] 

U U U U
e|---3----3---3----0----0---0---------------------------|
B|---3----3---3----0----0---0---------------------------|
G|---4----4---4----1----1---1---------------------------|
D|---5--5---5---5--2--2---2---2-------------------------|
A|---5--5---5---5--2--2---2---2-------------------------|
E|---3--3---3---3--0--0---0---0-------------------------|

        [D]    [D]    [D]      [D]    [D]    [D]       
Ok well thats all I got, like I said thats basically the whole song, just a small part
in the middle of the song missing thats all. Hope it's all good.

Important: The song above is NOT stored on the Chordie server. The original song is hosted at www.guitaretab.com. Chordie works as a search engine and provides on-the-fly formatting. Chordie does not index songs against artists'/composers' will. To remove this song please click here.

Text color:
Chord color:
Chord grids: 
Font size:    
Page size: 

D
variations - click chord images

Login - add to songbook

Transpose chords

Tuning

Rating click stars to rate

Layout
Accuracy

SHARE PAGE  




You need to log in to post comments