Chordie logo

All I Wanna Do Is Be With You Live Acoustic  Paul Weller

---------------------------------------------------------------------



---------------------------------------------------------------------



















        [F#m]B     [244222](7998XX)
        [G#]C#m*  [466544](X46654)
        [G]      [355433]                       
Intro: x2
e|-5--/--7--/--9-------7--/--9--/--10-h-12--------------------------|
B|------------------------------------------------------------------|
G|-5--/--7--/--9-------7--/--9--/--11-------------------------------|


(Note: During the verses where the "D" and "A" transitions are listed you
only need to hammer on and pull off quickly to make the "Dsus4" and
"Asus4/2" notes. Listen to the record and you'll see what I mean)

[A]I'm not out to con[C#m]vince you
D Dsus4 D A* Asus4 | A* | Asus
But draw up______on your mind
[A]I'm not out to [C#m]lose you
[D]You [Dsus4]know   [D]I'm not that [E]kind


Bm D Dsus A* Asus4 | A* | Asus
All I wanna do is be with you
[E]All I wanna [D]do is [Dsus]     be with [F#m]you  [E]


[A]I'm not here to [C#m]change you
D Dsus4 D A* Asus4 | A* | Asus
I'm neither clever nor confused
[A]I'm not looking to [C#m]steal you
[D]Don't want you [Dsus4]feel___[D]ing [E]used


Bm D Dsus A* Asus4 | A* | Asus
All I wanna do is be with you
[E]All I wanna [D]do is [Dsus]     be with [F#m]you  [E]


[F#m]  I bathe in [B]dust
[F#m]  I feel the [B]most
G# C#m*
I twist and turn, turn
G# C#m*
I'm lost and found
In a [F#m]moment,
In a [F]single,
[E]Moment

Solo:

e|-5--/--7--/--9-------7--/--9--/--10-h-12--------------------------|
B|------------------------------------------------------------------|
G|-5--/--7--/--9-------7--/--9--/--11-------------------------------| x2
e|-14--/--12--/--10--/--9------12--/--10--/--9--/--7----------------|
B|------------------------------------------------------------------|
G|-14--/--12--/--10--/--9------12--/--10--/--9--/--7----------------| x2



[A]I'm not out to [C#m]chain you
D Dsus4 D A* Asus4 | A* | Asus
Lead you for____ward from behind
[A]I'm don't want to [C#m]change you
[D]You know I'm [Dsus4]not    [D]that [E]kind


Bm D Dsus A* Asus4 | A* | Asus
All I wanna do is be with you
[E]All I wanna [D]do is [Dsus]     be with [F#m]you
Be with [E]you
Be with [Bm]you
D Dsus A* | Asus4 | A* | Asus
Be with you


[E]All I wanna [D]do   [Dsus]is be with [F]you
With [G]you
Be with [A]you

Outro:

e|-5--/--7--/--9-------7--/--9--/--10-h-12--------------------------|
B|------------------------------------------------------------------|
G|-5--/--7--/--9-------7--/--9--/--11-------------------------------| x2
e|-9---9---9---9----/---8---8---8---8------|
B|-----------------------------------------|
G|---9---9---9---9--/------8---8---8---8---| x2


End on "A".

Important: The song above is NOT stored on the Chordie server. The original song is hosted at www.guitaretab.com. Chordie works as a search engine and provides on-the-fly formatting. Chordie does not index songs against artists/composers will. To remove this song please click here.

A B Bm C#m D Dsus Dsus4 E F F#m G G#
variations - click chord images

Login - add to songbook

Transpose chords

Tuning

Rating click stars to rate

Layout
Accuracy

SHARE PAGE  



You need to log in to post comments