Whirlpools End

Paul Weller

----------------------------------------------------------------------------

----------------------------------------------------------------------------

 ACmaj7G
e|------0-------0-------3------0--------------------------------------------|
B|-----2-2-----0-0-----0-0----1-1-------------------------------------------|
G|----2---2---0---0---0---0--2---2------------------------------------------|
D|---2-------2-------0------3-----------------------------------------------|
A|--0-------3-------2------3------------------------------------------------|
E|--------------------------------------------------------------------------|

x2
 ACmaj7
The sun came up and hung above
G Fmaj7 A (drums & bass enter here)
Over our heads but far enough to see

 ACmaj7
 A bomb exploding in another town
 GFmaj7
 Children chokeing on a poison cloud
 ACmaj7
 While on the streets where lovers once walked
 GFmaj7
 Side by side in idle talk
 ACmaj7
 Bulliets fall like unholy rain
 GFmaj7
 People change as the planets set sail
 ACmaj7
 A freighted baby by her dead mothers side
 GFmaj7Em
 In a brutal world where therers nowhere to run hide or cry

 Fmaj7
 Now nothing feels the same way
 C
 Feels like im changing again
 D
 Upon a street with no name
 Fmaj7
 Its hard to find me again

 ACmaj7
 And I run as fast as my feet could fly
 GFmaj7
 Down country lanes where I took my time
 ACmaj7
 Down like a hound snaping at my heels
 GFmaj7
 What God was thinking so that I could fell
 ACmaj7
 Like a film playing in my head
 GFmaj7Em
 I keep on runing down the Surry fields in spring

 Fmaj7
 Now nothing feels the same way
 C
 Feels like Im changing again
 D
 Upon a street with no name
 Fmaj7
 Its hard to find me again!

 ACmaj7
 Sha la la la, Sha la la la la,
 GFmaj7
 Sha la la la, Sha la la la la
X2

 ACmaj7
 The sun came out and hung above
 GFmaj7
 Over our heads but far enough to see

Well thats it unless anyone knows all the stuff at the end. PLease rate.

|===========================================================================


A C Cmaj7 D Em Fmaj7 G
variations - click chord images
Transpose chords:
Tuning:
Cool service:
View: Size:
A  A  A
Rating:
Layout:
  • Currently 3.5/5 Stars.
  • 1
  • 2
  • 3
  • 4
  • 5
 
Accuracy:
  • Currently 4.7/5 Stars.
  • 1
  • 2
  • 3
  • 4
  • 5
 
click stars to rate
Chordie recommends:
Check out JamPlay.com for online video guitar lessons
Songbook:
Login to add this song to your songbook
Support the artist
Preview/buy this song
MSN Music
Why this non-profit ad?

 
login to add comments/video/corrections