Chordie logo

If You Talk Too Much My Head Will Explode   People In Planes



Tabbed by Jeff Kingsbury
kingsbury(.)jeff(@)gmail(.)com


Very basic chord chart I drew up to give you the basic feel for the song.



Intro/Brdge chords
e|--0---0---0-------------------------------------------------------------------|
B|--0---3---0-------------------------------------------------------------------|
G|--0---2---0-------------------------------------------------------------------|
D|--2---0---2-------------------------------------------------------------------|
A|--2---0---3-------------------------------------------------------------------|
E|--0---x---x-------------------------------------------------------------------|




The second guitar does this
e|--0---3---3-------------------------------------------------------------------|
B|--0---3---3-------------------------------------------------------------------|
G|--0---0---0-------------------------------------------------------------------|
D|--2---0---2-------------------------------------------------------------------|
A|--2---2---3-------------------------------------------------------------------|
E|--0---3---x-------------------------------------------------------------------|




Chorus (the D chord is played for two bars, the rest for one, that's why it's 
there twice)
e|--0---2---2---3----------------------------------------------------------------|
B|--0---3---3---3----------------------------------------------------------------|
G|--0---2---2---0----------------------------------------------------------------|
D|--2---0---0---2----------------------------------------------------------------|
A|--2---0---0---3----------------------------------------------------------------|


Important: The song above is NOT stored on the Chordie server. The original song is hosted at www.guitaretab.com. Chordie works as a search engine and provides on-the-fly formatting. Chordie does not index songs against artists/composers will. To remove this song please click here.

This song is displayed as text-only. Transposing and tuning is only available for chordpro-songs.

Login - add to songbook

Rating click stars to rate

Layout
Accuracy

SHARE PAGE  



You need to log in to post comments