Guitar Tabs, Chords and Lyrics


Loving You   Elvis Presley



    D     D     U         D    D    U      D    D    U     D  PM----

e---2-----2-----2---------5----5----5------3----3----3-----0--------------|
b---3-----3-----3---------7----7----7------0----0----0-----2--------------|
g---2-----2-----2---------5----5----5------0----0----0-----2--------------|
d-------------------------7----7----7------0----0----0-----2----------0---|
a------------------------------------------2----2----2-----0---0--0h2-----|
E------------------------------------------3----3----3--------------------|


    D     D     U         D    D    U [hold bend] D    D    U   D  D  D  U

e---2-----2-----2---------5----5----5---7b-7-7b---3----3----3---0--0--0--0-|
b---3-----3-----3---------7----7----7---7b-7-7b---0----0----0---2--2--2--2-|
g---2-----2-----2---------5----5----5---7b-7-7b---0----0----0---2--2--2--2-|
d-------------------------7----7----7-------------0----0----0---2--2--2--2-|
a-------------------------------------------------2----2----2---0--0--0--0-|
E-------------------------------------------------3----3----3--------------|

X2

then..

    D     D     U         D    D    U      D  D  U      D  D  U

e---2-----2-----2---------5----5----5------2--2--2------2--2--2----------|
b---3-----3-----3---------7----7----7------2--2--2------3--3--3----------|
g---2-----2-----2---------5----5----5------3--3--3------4--4--4----------|
d-------------------------7----7----7------4--4--4------4--4--4----------|
a------------------------------------------4--4--4------2--2--2----------|
E------------------------------------------2--2--2------2--2--2----------|

e-----3---------0-------------|
b-----0---------2-------------|
g-----0---------2-------------|
d-----0--X8-----2--X8---------|
a-----2---------0-------------|
E-----3-----------------------|

then go over with the begining



Important: The song above is NOT stored on the Chordie server. The original song is hosted at www.guitaretab.com. Chordie works as a search engine and provides on-the-fly formatting. Chordie does not index songs against artists'/composers' will. To remove this song please click here.

This song is displayed as text-only. Transposing and tuning is only available for chordpro-songs.

Login - add to songbook

Rating click stars to rate

Layout
Accuracy

SHARE PAGE  




You need to log in to post comments