Chordie logo

Scandalous  Prince

E-----------4--3-----------------------4--3--------------------------4-|


B-1--2--4-------------------1--2--4-------------------------1--2--4----|


G----------------------------------------------------------------------|


D----------------------------------------------------------------------|


A----------------------------------------------------------------------|


E----------------------------------------------------------------------|






E-----------1----------------------------------------------------4---3--|


B--2-----------1--2--4-------------------------1---2---4----------------|


G------------------------3-----5---3------------------------------------|


D-----------------------------------------------------------------------|


A-----------------------------------------------------------------------|


E-----------------------------------------------------------------------|




















[Abmaj7]    I can’t wait baby[Dbmaj7(sus4],               [Dbmaj7]  I can’t wait

baby[Abmaj7(addE],              [Amaj7(addB]       to wrap

[Dbmaj7(addA]my legs all around you [Dbmaj7]girl

Cuz [Gb(addG]sugar you know you’re just the kind of lover

[Fm6]   I’ve been looking for

[Bbm]Tonight why don’t we skip all the foreplay mama

Fb*7
and just get down here on the floor?


Chorus
[Ab]    Scandalous  [Dbmaj7]     I’m talking about you and me

[Ab]     Marvelous  [Dbmaj7]     Baby, baby, can’t you see?

[Gb]    Anything you ever dreamed of     [Fm]   I’m willing to be

Bbm Fb*7
Tonight is gonna be scandalous cuz tonight I’m gonna be
your fantasy

(then comes a solo-type of part (“My dearest, my dearest”)
which follows this chord pattern, slightly different than before)

Abmaj7 Dbmaj7 N.C. Abmaj7 Dmaj7 NC
Gb(addG#) Fm Bbm Bb(?)

Verse 3 (same as Verse 1 except where indicated *)
Whisper, whisper a question
With my body, I’ll scream a reply
Ebm7*
Anything’s acceptable
Just ask me and I’ll try
To hell with hesitation
Bb(?)*
To hell with reasons why

Outro
Essentially the same as Verse 1

Note: There are various keyboard riffs he plays
throughout the song which I will transcribe at a later date.

Chords (EADGBE)
Abmaj7 (4655xx)
Dbmaj7 (x46564)
[Fm]Bbm[133111] (x13321)
Bb*7 (012020)
Dbmaj7(sus4) (x46574)
Abmaj7(addE) (46555x)
Abmaj7(addB) (4655x7)
Dbmaj7(addA) (x47564)
Gb(addG) (xx4323)
[Gb]Bb([244322]?) (xx2324)
Ebm7 (x68676)

Important: The song above is NOT stored on the Chordie server. The original song is hosted at www.guitaretab.com. Chordie works as a search engine and provides on-the-fly formatting. Chordie does not index songs against artists/composers will. To remove this song please click here.

Ab Abmaj7 Bbm Dbmaj7 Fm Fm6 Gb
variations - click chord images

Login - add to songbook

Transpose chords

Tuning

Rating click stars to rate

Layout
Accuracy

SHARE PAGE  

You need to log in to post comments