Chordie logo

Drift And Die     Puddle Of Mudd



Drift and Die by Puddle of Mudd

Tabbed by: Lodi's_"Jesus"

Tuning: 1/2 step down

Intro/Verse:
e|-1-1-1--0-0-0-0-0-|      -3-3-3--3-3-3-3-3-|
B|-3-3-3--3-3-3-3-3-|      -0-0-0--0-0-0-0-0-|
G|-2-2-2--2-2-2-2-2-|      -0-0-0--0-0-0-0-0-|
D|-0-0-0--0-0-0-0-0-|x2    -2-2-2--0-0-0-0-0-|x2
A|-0-0-0--0-0-0-0-0-|      -3-3-3--2-2-2-2-2-|
E|------------------|      -0-0-0--3-3-3-3-3-|


Chorus:
e|-----------------------|
B|-----------------------|
G|-7xx-5x-4x-------------|
D|-7xx-5x-4x-3xxxx-5xxxx-|x4 first time
A|-5xx-3x-2x-3xxxx-5xxxx-|x8 second time
E|-----------1xxxx-3xxxx-|

(Note: First time around, play only 4 times acoustice only. Second time, first 4 are 
then last 4 are acoustic and electric. For third time, see below.)

Bridge-(Sounds clean but maybe some classical effects. Tab is right but dk about effects.):
e|-------------------------------------------|
B|-------------------------------------------|
G|-15-13---12--12-14-12----3/8-7-5-7-8-------|
D|-------------------------------------------|
A|-------------------------------------------|
E|-------------------------------------------|

Solo-(with wah):
e|----------------------------------------------------------|
B|----------------------------------------------------------|
G|-7--7-5-7---------5-------5--7-5--7--3--4-----------------|x2
D|-7--7-5-7---5-5/7---5-5/7---------7--3--4--3-333-55555555-|
A|-5--5-3-5-------------------------5--5--2--3-333-55555555-|
E|-------------------------------------------1-111-33333333-|

(Note: Don't play the last note on second round. Just let the 3 ring out.)
                                                              3
                                                              1

Post-Solo Chorus:
e|----------------------------------|
B|----------------------------------|
G|-7---7-5---5-4---4------------4---|
D|-7-7---5-5---4-4---3---3-----5-5--|then, electric and acoustic regular
A|-5-----3-----2-----3-3---3--5---5-|chorus x8
E|-------------------1-------3------|

This is my first tab so e-mail me with any questions or comments at 


Important: The song above is NOT stored on the Chordie server. The original song is hosted at www.guitaretab.com. Chordie works as a search engine and provides on-the-fly formatting. Chordie does not index songs against artists/composers will. To remove this song please click here.

This song is displayed as text-only. Transposing and tuning is only available for chordpro-songs.

Rating click stars to rate

Layout
Accuracy

SHARE PAGE  

You need to log in to post comments