Chordie logo


Just Say Cunt   Queers



The Queers- Just Say Cunt

Standard Tuning 
EBGDAE

Intro
E|----------------------------|
B|----------------------------|
G|-2-2-2/5-5-5/10-10-10/9-9-9-|
D|-2-2-2/5-5-5/10-10-10/9-9-9-| x2
A|-0-0-0/3-3-3/-8--8--8/7-7-7-|
E|----------------------------|

Verse:

  I think it's so stupid
  Girls won't say this word
  Like asking everyone to not say shit 
  say  turd
E|----------------------------|
B|----------------------------|
G|-2-2-2/5-5-5/10-10-10/9-9-9-|
D|-2-2-2/5-5-5/10-10-10/9-9-9-| x4
A|-0-0-0/3-3-3/-8--8--8/7-7-7-|
E|----------------------------|

  Fall back 5 yards it's time to punt
E|-------------------------|
B|-------------------------|
G|-10-----9-9-9-9-9-9-10-9-|
D|-10-x10-x-x-x-x-x-x-10-x-|
A|--8-----7-7-7-7-7-7--8-7-|
E|-------------------------|

Verse 2:
  I think "gash" is offensive
  Not to mention rude
  And I don't think about eating it
  When I'm eating food
E|----------------------------|
B|----------------------------|
G|-2-2-2/5-5-5/10-10-10/9-9-9-|
D|-2-2-2/5-5-5/10-10-10/9-9-9-| x4
A|-0-0-0/3-3-3/-8--8--8/7-7-7-|
E|----------------------------|

  There once was some dude on T.V.
  His name was Alan Funt
E|--------------------------|
B|--------------------------|
G|-10-----9-9-9-9-9-9-9-9-9-|
D|-10-x10-x-x-x-x-x-x-x-x-x-|
A|--8-----7-7-7-7-7-7-7-7-7-|
E|--------------------------|


Chorus:
  Just say cunt!                      Just say-
E|------------------------------------------|
B|------------------------------------------|
G|---------------2-2-2/5-5-5/10-10-10/9-9-9-|
D|---------------2-2-2/5-5-5/10-10-10/9-9-9-|
A|---------------0-0-0/3-3-3/-8--8--8/7-7-7-|
E|------------------------------------------|

 -Cunt!                   Just say-       
E|----------------------------|
B|----------------------------|
G|-2-2-2/5-5-5/10-10-10/9-9-9-|
D|-2-2-2/5-5-5/10-10-10/9-9-9-| 
A|-0-0-0/3-3-3/-8--8--8/7-7-7-|
E|----------------------------|

 -cunt!                   Just say
E|----------------------------|
B|----------------------------|
G|-2-2-2/5-5-5/10-10-10/9-9-9-|
D|-2-2-2/5-5-5/10-10-10/9-9-9-| 
A|-0-0-0/3-3-3/-8--8--8/7-7-7-|
E|----------------------------|
  
  Cu-ooh-Oh-ooh-
E|------------------|
B|------------------|
G|-2---5---10---9---|
D|-2---5---10---9---|
A|-0---3----8---7---|
E|------------------|

  Uuuuuu-uuuu-ooh-oh-ooh-unt!
E|--------------------------|
B|--------------------------|
G|-10-----9-9-9-9-9-9-9-9-9-|
D|-10-x10-x-x-x-x-x-x-x-x-x-|
A|--8-----7-7-7-7-7-7-7-7-7-|
E|--------------------------|

SOLO/RIFF: whatever you wanna call it
E|--------------------------------------------|
B|-10-10-10-10-8------------------------------|
G|---------------9-10-10-10-10-9------9----7--|
D|-------------------------------7-10---10----|
A|--------------------------------------------|
E|--------------------------------------------|

E|---------------------------------------------|
B|-10-10-10-10-8-------------------------------|
G|---------------9-10-10-10-10-9------9----9^9-|
D|-------------------------------7-10---10-----|
A|---------------------------------------------|
E|---------------------------------------------|

Verse 3: 
   hope you're not offended
   By this little tune of mine
   So girls please don't start to flip out
   To say cunt is no crime
E|----------------------------|
B|----------------------------|
G|-2-2-2/5-5-5/10-10-10/9-9-9-|
D|-2-2-2/5-5-5/10-10-10/9-9-9-| x4
A|-0-0-0/3-3-3/-8--8--8/7-7-7-|
E|----------------------------|

  The littlest piglet in the litter
  is called the runt
E|--------------------------|
B|--------------------------|
G|-10-----9-9-9-9-9-9-9-9-9-|
D|-10-x10-x-x-x-x-x-x-x-x-x-|
A|--8-----7-7-7-7-7-7-7-7-7-|
E|--------------------------|


Chorus:
  Just say cunt!                      Just say-
E|------------------------------------------|
B|------------------------------------------|
G|---------------2-2-2/5-5-5/10-10-10/9-9-9-|
D|---------------2-2-2/5-5-5/10-10-10/9-9-9-|
A|---------------0-0-0/3-3-3/-8--8--8/7-7-7-|
E|------------------------------------------|

 -Cunt!                   Just say-       
E|----------------------------|
B|----------------------------|
G|-2-2-2/5-5-5/10-10-10/9-9-9-|
D|-2-2-2/5-5-5/10-10-10/9-9-9-| 
A|-0-0-0/3-3-3/-8--8--8/7-7-7-|
E|----------------------------|

 -cunt!                   Just say
E|----------------------------|
B|----------------------------|
G|-2-2-2/5-5-5/10-10-10/9-9-9-|
D|-2-2-2/5-5-5/10-10-10/9-9-9-| 
A|-0-0-0/3-3-3/-8--8--8/7-7-7-|
E|----------------------------|
  
  Cu-ooh-Oh-ooh-
E|------------------|
B|------------------|
G|-2---5---10---9---|
D|-2---5---10---9---|
A|-0---3----8---7---|
E|------------------|

  Uuuuuu-uuuu-ooh-oh-ooh-unt!
E|--------------------------|
B|--------------------------|
G|-10-----9-9-9-9-9-9-9-9-9-|
D|-10-x10-x-x-x-x-x-x-x-x-x-|
A|--8-----7-7-7-7-7-7-7-7-7-|
E|--------------------------|


END:
  Just say CUNT!
E|--------------|
B|---------2----|
G|---------2----|
D|---------0----|
A|--------------|


Important: The song above is NOT stored on the Chordie server. The original song is hosted at www.guitaretab.com. Chordie works as a search engine and provides on-the-fly formatting. Chordie does not index songs against artists/composers will. To remove this song please click here.

This song is displayed as text-only. Transposing and tuning is only available for chordpro-songs.

Login - add to songbook

Rating click stars to rate

Layout
Accuracy

SHARE PAGE  




You need to log in to post comments