eToCache5 = ""; ?> Nevermore by Rage - guitar chords, guitar tabs and lyrics - chordie

Nevermore

Rage

+++++
||------------------|--------------------||
||------------------|--------------------||
||*-----------------|-------------------*||
||*-4---4---2-------|--2---0---55554433-*||
||--2---5---2-------|--3---2---55554433--||
||----------0-------|----------33332211--||


(Riff I)
] ] ] ] ] ]
||-------/-\--------/-\--------/-\---------|
||-----------------------------------------|
||*-----12-11------12-11------12-11---/-\--|
||*-9-9-12-11--9-9-12-11--9-9-12-11--10-9--|
||--7-7-10- 9--7-7-10- 9--7-7-10- 9--10-9--|
||--0-0--------0-0--------0-0-------- 8-7--|


+ + + + + + (6 times)
|-------/-\--------/-\-------/-\-------||
|--------------------------------------||
|------12-11------12-11------5-4--/-\-*||
|--9-9-10-11--9-9-12-11--9-9-5-4--5-4-*||
|--7-7-10- 9--7-7-10- 9--7-7-3-2--5-4--||
|--0-0--------0-0--------0-0------3-2--||


+++ +++ +++
|---------------------|---------------------|---------------------|
|---------------------|---------------------|---------------------|
|---------------------|---------------------|---------------------|
|--4---444444-2---4---|--4---444444-2-------|--4---444444-2---4---|
|--2---222222-3---5---|--2---222222-0---2---|--2---222222-3---5---|
|---------------------|-----------------0---|---------------------|


+] +] +] +++++
|------------------------------|
|------------------------------|
|------------------------------|
|--4-44--4-44--4-44--44444444--|
|--2-22--2-22--2-22--22222222--|
|------------------------------|


(Ref.)
] ] ] ] +++++
||---------------/-\--------/-\---|--------------------||
||--------------------------------|--------------------||
||*-------------12-11------12-11--|-------------------*||
||*-4---4---9-9-12-11--9-9-12-11--|--2---0---55554433-*||
||--2---5---7-7-10- 9--7-7-10- 9--|--3---2---55554433--||
||----------0-0--------0-0--------|----------33332211--||


(Riff I, 4 times)

(Ref.)

] ] ] ] ] ]
|-------/-\--------/-\--------/-\---------|
|-----------------------------------------|
|------12-11------12-11------12-11---/-\--|
|--9-9-12-11--9-9-12-11--9-9-12-11--10-9--|
|--7-7-10- 9--7-7-10- 9--7-7-10- 9--10-9--|
|--0-0--------0-0--------0-0-------- 8-7--|


] ] ] ] ]
|-------/-\--------/-\-----------------|-------|
|--------------------------------------|-------|
|------12-11------12-11----------------|-------|
|--9-9-12-11--9-9-12-11--9-9-----------|--2----|
|--7-7-10- 9--7-7-10- 9--7-7-----------|--2----|
|--0-0--------0-0--------0-0-----------|--0----|


(while Solo)
+++++++++++++++++ ++++++++++++++++++(3x) ++++++++++++++++
||-----------------------------------------||-----------------------------|
||-----------------------------------------||-----------------------------|
||*---------------------------------------*||-----------------------------|
||*---------------------------------------*||--------------------4---2-4--|
||--22222222222222222--222222222222222222--||--2222222222222222--2---3-5--|
||--33333333333333333--000000000000000000--||--3333333333333333-----------|


+] +] +] +++++
|-----------|-----------|------------------------------|-------------------|
|-----------|-----------|------------------------------|-------------------|
|-----------|-----------|------------------------------|-------------------|
|--4---2----|--4---2-4--|--4-44--4-44--4-44--44444444--|--2----(2)----2----|
|--2---0-2--|--2---3-5--|--2-22--2-22--2-22--22222222--|--2----(2)----2----|
|--------0--|-----------|------------------------------|--0----(0)----0----|


(Riff I, 3 times)

(Ref., 2 times)

(Ref. without to repeat)

] ] ] ] +++++
|---------------/-\--------/-\---|--------------------|
|--------------------------------|--------------------|
|--------------12-11------12-11--|--------------------|
|--4---4---9-9-12-11--9-9-12-11--|--2---0---77776655--|
|--2---5---7-7-10- 9--7-7-10- 9--|--3---2---77776655--|
|----------0-0--------0-0--------|----------55554433--|


++++++ ++++++++(3x)
||--------------------|--------------------||------------|
||--------------------|--------------------||------------|
||*-------------------|-------------------*||------------|
||*-6---6-------------|--7---6---77776655-*||--55554433--|
||--4---7---4-444444--|--5---4---77776655--||--55554433--|
||----------2-222222--|----------55554433--||--33332211--|


(Riff I, 2 times)

||-----------||
||-----------||
||*---------*||
||*-5---4---*||
||--5---4----||
||--3---2----||


variations - click chord images
Transpose chords:
Tuning:
Cool service:
View: Size:
A  A  A
Rating:
Layout:
  • Currently 0/5 Stars.
  • 1
  • 2
  • 3
  • 4
  • 5
 
Accuracy:
  • Currently 0/5 Stars.
  • 1
  • 2
  • 3
  • 4
  • 5
 
click stars to rate
Chordie recommends:
Learn to play guitar with video-based, online guitar lessons at JamPlay.com
Songbook:
Login to add this song to your songbook
Support the artist
Preview/buy this song
MSN Music
Why this non-profit ad?

 
login to add comments/video/corrections