Chordie logo


Southborder   Rainbow



Standard Tuning	(EADGBE)
Capo on 1st fret

Verse:

E------------------------|
B------0-----------------|
G----1-1---------2h4p2-2-|
D---2--2--------2-----2--|
A--2---2------2----------|
E-0----0----0------------|

E------------------------|
B------0-----------------|
G----1-1---------2h4p2-4-|
D---2--2--------2-----2--|
A--2---2------2----------|
E-0----0----0------------|

E----------------------------|
B------3---------------------|
G-4----4--------2------4-----|
D----5----------2----4-4-----|
A---5---------4----2---------|
E-3---------2----------------|

E------------------------|
B------0-----------------|
G----1-1---------2h4p2-4-|
D---2--2--------2-----2--|
A--2---2------2----------|
E-0----0----0------------|


Pre-chorus:

E-------------|------------------0----------|
B-4--5--0--2--|--4--5h7p5--0----0-----------|
G-4--4--0--2--|--4--4------0---2------------|
D-4--6--2--2--|--4--6------2--0-------------|
A-6--4--3--2--|--6--4------3----------------|
E-4-----------|--4--------------------------|

Chorus:
"take a little time baby.."

E-0---0---0--4\4------------------|
B-0---0---0--4\4------------------|
G-1---2---4--4\4------------------|
D-2---2---4--6\4------------------|
A-2----------6\6------------------|
E-0---2---4--4\4------------------|

"you..Can you feel me.."This is such.."

E-4---2-2------------------------------------------------|
B-5---2-2----------------2------------2-0-2--------------|
G-4---3-3----------------2------------2-2-2--------------|
D-6---4-2----------------2------------1-1-1--------------|
A-4---4-4----------------4------------2-2-2--------------|
E-----2-2----------------2-------------------------------|

"even if there is..."

E-0---0---0--4\4------------------|
B-0---0---0--4\4------------------|
G-1---2---4--4\4------------------|
D-2---2---4--6\4------------------|
A-2----------6\6------------------|
E-0---2---4--4\4------------------|

"day..Can you hear me.."There's a rainbow.."

E-4---2-2-------------------0------------|
B-5---2-2-------------------1------------|
G-4---3-3-------------------2------------|
D-6---4-2-------------------2------------|
A-4---4-4-------------------0------------|
E-----2-2--------------------------------|

Bridge:
"life's full of challenges.."

E-----------------------------------|
B--4------------------------4-4-----|
G--5------------------------5-5-----|
D--4------------------------6-4-----|
A--6------------------------6-6-----|
E--4------------------------4-4-----|

"dut don't despair my dear.."

E----------------------------------|
B--5---------5---------------------|
G--4---------4---------------------|
D--6---------6---------------------|
A--4---------4---------------------|
E----------------------------------|

"you'll take each trial.."

E-----------------------------------|
B--4------------------------4-4-----|
G--5------------------------5-5-----|
D--4------------------------6-4-----|
A--6------------------------6-6-----|
E--4------------------------4-4-----|

"my faith in you is clear.."

E-----------------------------------|
B--5---------3-3--------------------|
G--4---------4-4--------------------|
D--6---------5-3--------------------|
A--4---------5-5--------------------|
E------------3-3--------------------|

"so they say.."

E-0--4--2--|-0--4---3-----------------|
B-2--4--2--|-2--4---3--6-5------------|
G-1--4--2--|-1--4---3--3-3------------|
D-2--4--2--|-2--4---3--5-5------------|
A-0--6--4--|-0--6---5--3-3------------|
E----4--2--|----4---3-----------------|

Chorus: 1 fret higher

notmelc

eneelyc rof edam!!!!e2 n lng gift ko!!! khit july n po!!!


Important: The song above is NOT stored on the Chordie server. The original song is hosted at www.guitaretab.com. Chordie works as a search engine and provides on-the-fly formatting. Chordie does not index songs against artists/composers will. To remove this song please click here.

This song is displayed as text-only. Transposing and tuning is only available for chordpro-songs.

Login - add to songbook

Rating click stars to rate

Layout
Accuracy

SHARE PAGE  




You need to log in to post comments