Tropicana

Ratatat

 AFAF
(Pause Violin plays)

(strum chords)
 AFAFBA#
Verse: x3
(strum chords)
 AFAFBA#
Riff During Verse
e|------------------------------------------------------------------|
B|----------------------------------------------------7--------6----|
G|---7s9--7--6--7s9--------7s9--7--6--7s9-----------8---8----7---7--|
D|------------------10--------------------10------9--------8--------|
A|------------------------------------------------------------------|
E|------------------------------------------------------------------|


Chorus:
(strum chords)
D A F# C# x3
 DAE
 D  A  F#  C#      x3
 DAE
Riff During Chorus
e|----5--7--9--5----5--7----------5--7--9--5--7--9---------|
B|--7-------------7------9--6---7--------------------------|
G|---------------------------------------------------------|
D|---------------------------------------------------------|
A|---------------------------------------------------------|
E|---------------------------------------------------------|


Verse: x4
(strum chords)
 AFAFBA#
Riff During Verse
e|------------------------------------------------------------------|
B|----------------------------------------------------7--------6----|
G|---7s9--7--6--7s9--------7s9--7--6--7s9-----------8---8----7---7--|
D|------------------10--------------------10------9--------8--------|
A|------------------------------------------------------------------|
E|------------------------------------------------------------------|


Bridge:
(arpeggio style picking)
 AA
Outro: x5
(strum chords)
 AC#DBF#EDD
Riff During Outro
e|-----------------------------------------------------|
B|-----------------------------------------------------|
G|----------4------------4---4--6---4------------------|
D|--7--4--7---6--7--4--7---7------7---6--7--4----------|
A|----------------------------------------------7------|
E|-----------------------------------------------------|



A A# B C# D E F F#
variations - click chord images
Transpose chords:
Tuning:
Cool service:
View: Size:
A  A  A
Rating:
Layout:
  • Currently 3.1/5 Stars.
  • 1
  • 2
  • 3
  • 4
  • 5
 
Accuracy:
  • Currently 2.4/5 Stars.
  • 1
  • 2
  • 3
  • 4
  • 5
 
click stars to rate
Chordie recommends:
Learn to play guitar with video-based, online guitar lessons at JamPlay.com
Songbook:
Login to add this song to your songbook
Support the artist
Preview/buy this song
MSN Music
Why this non-profit ad?

 
login to add comments/video/corrections