Guitar Tabs, Chords and Lyrics


Crazy Acoustic   Ray Lamontagne




                                 CAPO 3

Verse: (X2)
   Am                                         C
E-0-----0-----0------0--------0-------0-----0-----0-----0----0-----0----0---|
B---1-----1-----1-------1-------1-------1-----1-----1-----1----1-----1----1-|
G-----2-----2--------------2-------2-------------0-----0----------0----0----|
D---------------------------------------------------------------------------|
A-0------------------0----------------------3----------------3--------------|
E---------------------------------------------------------------------------|
                                            *my mind*
  F                                       Esus              E
E--1------1-----1-----1-----1-----1-------------0-----0-----------0-----0----|
B----1------1-----1-----1-----1-----1-------------0-----0-----------0-----0--|
G------2------2-----------2-----2---------2---------2-------1---------1------|
D--3------------------3---------------------2-----------------2--------------|
A-----------------------------------------2---2-------------2---2------------|
E----------------------------------------------------------------------------|
 *that day*                               *much space*
Chorus:
 Am(X4)    C(X4)   F(X4)   Esus(X2)   E(X2)
E-0---------0------1--------0----------0---------------------------------|
B-1---------1------1--------0----------0---------------------------------|
G-2---------0------2--------2----------1---------------------------------|
D-2---------2------3--------2----------2---------------------------------|
A-0---------3------0--------2----------2---------------------------------|
E-0---------0------0--------0----------0---------------------------------|

*me crazy*                 *probably*

Verse+:
E--------0-----0----------0-----0-----1-----1-----1----1-----1-----1---|
B--2-------2-----2--2-------2-----2-----1-----1-----2----1-----1-----2-|
G----2-------2--------2-------2-----------2-----2----------2-----2-----|
D------2----------------2-------------3----------------3---------------|
A--0----------------0--------------------------------------------------|
E----------------------------------------------------------------------|

  *hope*           *time*            *life*

E--------0-----0-----------0-----0------------0----0--------0------------|
B--1-------1-----1---1-------1-----1------------0----0----------0--------|
G----0-------0---------0-------0---------2--------2----1----------1------|
D------2-----------------2-----------------2-------------2---------------|
A--3-----------------3-------------------2---2---------2---2-------------|
E------------------------------------------------------------------------|
  *twice*                                *advice*

                              Verse(X1)

                              Chorus (X1)

                              Verse+(X1)

                              Verse (X1)

                              Chorus (X1)

*************************************************************************
The words with stars are the words which you need to change on. It's in Capo 3. Verse+ 
different to normal Verse as it starts on A not Am. Just listen to the track and you'll 
it out.
**************************************************************************
                               LYRICS:

I remember when
I remember, when I lost my mind
There was something so pleasant about that face
Even your emotions had an echo
In so much space

And when you're out there
Without care
I was out of touch
It wasn't because I didn't know enough
I just knew too much

Does that make me crazy
Does that make me crazy
Does that make me crazy
Probably

An I hope that you are having the time of your life
Oh but think twice
That's my only advice

Come on now
Who do you
Who do you think you are
Woah Woah
Bless your soul
Do you really think that you're in control

Well I think you're crazy
I think you're crazy
I think you're crazy
Just like me, yeah

My heroes had the heart
To lose their lives out on a limb
An all I remember
Is thinking I wanna be like them

Ever since I was little it looked like fun
It was no coincidence that I've come
I can die when I'm done

Maybe I'm crazy
Maybe you're crazy
Maybe we're crazy


Important: The song above is NOT stored on the Chordie server. The original song is hosted at www.guitaretab.com. Chordie works as a search engine and provides on-the-fly formatting. Chordie does not index songs against artists'/composers' will. To remove this song please click here.

This song is displayed as text-only. Transposing and tuning is only available for chordpro-songs.

Login - add to songbook

Rating click stars to rate

Layout
Accuracy

SHARE PAGE  




You need to log in to post comments