Guitar Tabs, Chords and Lyrics


Truly Madly Deeply   Ray Lamontagne



Artist: Ray LaMontagne
Title: Truly, Madly, Deeply
Album: Till The Sun Turns Black (2006)
Contact me: yonni_man@hotmail.com
Tuning: EADGBe

This is the lead solo played for the song.  I think the chord played continuously in the 
is a C/G played 3320xx.  I have transcribed it myself by ear.  I am 99.9% sure that the 
are correct.
Enjoy!

(0:08)
e|---------------------------------------------------------------|
B|--9~~-------------9----9--11~~---------------------------------|
G|-----10-8-10~~------10----------10-8-10~~----------------------|
D|---------------------------------------------------------------|
A|---------------------------------------------------------------|
E|---------------------------------------------------------------|

(0:24)
e|---------------------------------------------------------------|
B|--11------11--13~~---------------------------------------------|
G|------10------------13-11-13~~--13--11--10--11-13-11-10-11~~---|
D|---------------------------------------------------------------|
A|---------------------------------------------------------------|
E|---------------------------------------------------------------|

(0:43)
e|---------------------------------------------------------------|
B|---------------------------------------------------------------|
G|--11--11--11--11-10-8-10~~-------------------------------------|
D|---------------------------------------------------------------|
A|---------------------------------------------------------------|
E|---------------------------------------------------------------|

(0:52)
e|---------------------------------------------------------------|
B|--9~~----9--11~~-----------------------------------------------|
G|-----10-----------10-8-10~~------------------------------------|
D|---------------------------------------------------------------|
A|---------------------------------------------------------------|
E|---------------------------------------------------------------|

(1:02)
e|---------------------------------------------------------------|
B|--11------11--13~~---------------------------------------------|
G|------10------------13-11-13~~--13--11--10--11-13-11-10-11~~---|
D|---------------------------------------------------------------|
A|---------------------------------------------------------------|
E|---------------------------------------------------------------|

(1:20)
e|---------------------------------------------------------------|
B|---------------------------------------------------------------|
G|--11--11--11--11-10-8-10~~--8h10--8~~--------------------------|
D|---------------------------------------11--11------------------|
A|---------------------------------------------------------------|
E|---------------------------------------------------------------|

~ = harmonic (hold the note)


Important: The song above is NOT stored on the Chordie server. The original song is hosted at www.guitaretab.com. Chordie works as a search engine and provides on-the-fly formatting. Chordie does not index songs against artists/composers will. To remove this song please click here.

This song is displayed as text-only. Transposing and tuning is only available for chordpro-songs.

Login - add to songbook

Rating click stars to rate

Layout
Accuracy

SHARE PAGE  




You need to log in to post comments