Guitar Tabs, Chords and Lyrics


Truely Madly Deeply   Ray Lamontagne



Ok, this song is legendary. But it needs three acoustic guitars to be played in full,
just one playing the top riff, which sounds equally as powerful.

Now, the chords played in the background are D/A - x04232
                                             Bm7 - x24232
                                           Aadd9 - x02425
                                               G - 355433
All played with the thumb on a downstroke, listen and you can hear it.
The pattern for the chord are D/A x 4 (2 of them intro)
                              Bm7 x 2
                            Aadd9 x 2
                                G x 2
                              D/A x 2
                              Bm7 x 2
                            Aadd9 x 2
                                G x 2
                              D/A x 1
                            Aadd9 x 1
                        then  D/A X to fade, 3 or 4 bars

Now the pattern for the picking is below, IT IS FOR 2 GUITARS. I have just put them on
same tab. It is important that you hold the note, on most of them, to achieve the awesome
that the song carries. This comnes in after the first 2 bars of D/A, listen to song for 
very important.


e|-5-------------------5-----5---7-----------7---7-9------------------------|
B|--------7-5-7-----------7---------7-5-7------7------10-8-10------10--8--7-|
G|-2-----------------------------------------4---4-6------------------------|
D|--------4-2-4--------2-----2---4-------------4------7--5--7------7---5--4-|
A|------------------------4---------4-2-4-----------------------------------|
E|--------------------------------------------------------------------------|


e|-------------------------------------5-----5--7---------7---7-9-----------|
B|--8-10-8-7-8------8-8-8-8-7---5-7--------7--------7-5-7----7------10-8-10-|
G|-------------------------------------2-----2--4---------4---4-6-----------|
D|--5-7--5-4-5------5-4-2-4-5-4-2-4--------4--------4-2-4----4------7--5--7-|
A|--------------------------------------------------------------------------|
E|--------------------------------------------------------------------------|


e|--------------------------------------------------------------------------|
B|-10--8--7----8-10-8-7-8----8-8-8-8-7---5-7---5/7--5-------7---7-----------|
G|--------------------------------------------------------------------------|
D|-7---5--4----5--7-5-4-5----5-4-2-4-5-4-2-4---2/4--2-------0---0-----------|
A|--------------------------------------------------------------------------|
E|--------------------------------------------------------------------------|

I'm just gonna say it again, the tab above is for 2 guitars to be played
but sounds still as good if you start on the 5 on the e string on your own, just get the 
timing


Important: The song above is NOT stored on the Chordie server. The original song is hosted at www.guitaretab.com. Chordie works as a search engine and provides on-the-fly formatting. Chordie does not index songs against artists'/composers' will. To remove this song please click here.

This song is displayed as text-only. Transposing and tuning is only available for chordpro-songs.

Login - add to songbook

Rating click stars to rate

Layout
Accuracy

SHARE PAGE  




You need to log in to post comments