Chordie logo

Fortune Faded   Red Hot Chili Peppers



Tabbed By: Brandon B
Email: Brandon_Bordignon@hotmail.com

Tuning: standard eBGDAE

"Easy and fun song to play" - Brandon


Intro
Guitar 2 (00:00)
e|---------------------------------------------------------------------------
B|---------------------------------------------------------------------------
G|---------------------------------------------------------------------------
D|-4444444444----------------------------------------------------------------
A|-4444444444----------------------------------------------------------------
E|-2222222222----------------------------------------------------------------

Guitar 1 (00:05)
e|---------------------------------------------------------------------------
B|---------------------------------------------------------------------------
G|---------------------------------------------------------------------------
D|---------------------------------------------------------------------------
A|---------------------------------------------------------------------------
E|-99999999-14141414141414---------------------------------------------------

Verse 1
(Guitar 1) (00:08)
e|---------------------------------------------------------------------------
B|----------------------------------------14-14-14---------------------------
G|----11-------11-------14-11-14-11-14-11------------------------------------
D|--9----9-9-9----11-9-------------------------------------------------------
A|---------------------------------------------------------------------------
E|---------------------------------------------------------------------------


(Guitar 2) (00:08)
e|---------------------------------------------------------------------------
B|---------------------------------------------------------------------------
G|---------------------------------------------------------------------------
D|--99xx99xx99xx99xx---12121212--7777777-------------------------------------
A|--99xx99xx99xx99xx---12121212--7777777-------------------------------------
E|--77xx77xx77xx77xx---10101010--5555555-------------------------------------

(Guitar 1) (00:16)
e|---------------------------------------------------------------------------
B|---------------------------------------------------------------------------
G|----11-------11-------14--11--14--11\--------------------------------------
D|--9----9-9-9----11-9-------------------------------------------------------
A|---------------------------------------------------------------------------
E|---------------------------------------------------------------------------

(Guitar 2) (00:16)
e|---------------------------------------------------------------------------
B|---------------------------------------------------------------------------
G|---------------------------------------------------------------------------
D|--99xx99xx99xx99xx---12121212--7777777-------------------------------------
A|--99xx99xx99xx99xx---12121212--7777777-------------------------------------
E|--77xx77xx77xx77xx---10101010--5555555-------------------------------------

Vocals come in
(Guitar 2) (00:24)
e|---------------------------------------------------------------------------
B|---------------------------------------------------------------------------
G|---------------------------------------------------------------------------
D|--99xx99xx99xx99xx---12121212--7777777-------------------------------------
A|--99xx99xx99xx99xx---12121212--7777777-------------------------------------
E|--77xx77xx77xx77xx---10101010--5555555-------------------------------------

e|---------------------------------------------------------------------------
B|---------------------------------------------------------------------------
G|---------------------------------------------------------------------------
D|--99xx99xx99xx99xx---12121212--7777777-------------------------------------
A|--99xx99xx99xx99xx---12121212--7777777-------------------------------------
E|--77xx77xx77xx77xx---10101010--5555555-------------------------------------

verse 2
(Guitar 1) (00:41)
e|---------------------------------------------------------------------------
B|---------------------------------------------------------------------------
G|----11-------11-------14--11--14--11\--------------------------------------
D|--9----9-9-9----11-9-------------------------------------------------------
A|---------------------------------------------------------------------------
E|---------------------------------------------------------------------------

(Guitar 2) (00:41)
e|---------------------------------------------------------------------------
B|---------------------------------------------------------------------------
G|---------------------------------------------------------------------------
D|--99xx99xx99xx99xx---12121212--7777777-------------------------------------
A|--99xx99xx99xx99xx---12121212--7777777-------------------------------------
E|--77xx77xx77xx77xx---10101010--5555555-------------------------------------

Vocals come in
(Guitar 2) (00:48)
e|---------------------------------------------------------------------------
B|---------------------------------------------------------------------------
G|---------------------------------------------------------------------------
D|--99xx99xx99xx99xx---12121212--7777777-------------------------------------
A|--99xx99xx99xx99xx---12121212--7777777-------------------------------------
E|--77xx77xx77xx77xx---10101010--5555555-------------------------------------

e|---------------------------------------------------------------------------
B|---------------------------------------------------------------------------
G|---------------------------------------------------------------------------
D|--99xx99xx99xx99xx---12121212--7777777-------------------------------------
A|--99xx99xx99xx99xx---12121212--7777777-------------------------------------
E|--77xx77xx77xx77xx---10101010--5555555-------------------------------------

verse 3
(Guitar 1) (01:05)
e|---------------------------------------------------------------------------
B|---------------------------------------------------------------------------
G|----11-------11-------14-11-14-11-14-11--14-11-14-11-14-11-----------------
D|--9----9-9-9----11-9-------------------------------------------------------
A|---------------------------------------------------------------------------
E|---------------------------------------------------------------------------

(Guitar 2) (01:05)
e|---------------------------------------------------------------------------
B|---------------------------------------------------------------------------
G|---------------------------------------------------------------------------
D|--99xx99xx99xx99xx---12121212--7777777-------------------------------------
A|--99xx99xx99xx99xx---12121212--7777777-------------------------------------
E|--77xx77xx77xx77xx---10101010--5555555-------------------------------------

Chorus x2
(Guitar 2) (01:13)

e|---------------------------------------------------------------------------
B|---------------------------------------------------------------------------
G|---------------------------------------------------------------------------
D|9-9-9--1275-5-5-5-9-9-9-9-7-7-7-7------------------------------------------
A|9-9-9--1275-5-5-5-9-9-9-9-7-7-7-7------------------------------------------
E|7-7-7--1053-3-3-3-7-7-7-7-5-5-5-5------------------------------------------

Verse 1
(Guitar 1) (01:29)
e|---------------------------------------------------------------------------
B|----------------------------------------14-14-14---------------------------
G|----11-------11-------14-11-14-11-14-11------------------------------------
D|--9----9-9-9----11-9-------------------------------------------------------
A|---------------------------------------------------------------------------
E|---------------------------------------------------------------------------


(Guitar 2) (01:29)
e|---------------------------------------------------------------------------
B|---------------------------------------------------------------------------
G|---------------------------------------------------------------------------
D|--99xx99xx99xx99xx---12121212--7777777-------------------------------------
A|--99xx99xx99xx99xx---12121212--7777777-------------------------------------
E|--77xx77xx77xx77xx---10101010--5555555-------------------------------------

(Guitar 1) (01:37)
e|---------------------------------------------------------------------------
B|---------------------------------------------------------------------------
G|----11-------11-------14--11--14--11\--------------------------------------
D|--9----9-9-9----11-9-------------------------------------------------------
A|---------------------------------------------------------------------------
E|---------------------------------------------------------------------------

(Guitar 2) (01:37)

e|---------------------------------------------------------------------------
B|---------------------------------------------------------------------------
G|---------------------------------------------------------------------------
D|--99xx99xx99xx99xx---12121212--7777777-------------------------------------
A|--99xx99xx99xx99xx---12121212--7777777-------------------------------------
E|--77xx77xx77xx77xx---10101010--5555555-------------------------------------

Vocals come in
(Guitar 2) (01:45)
e|---------------------------------------------------------------------------
B|---------------------------------------------------------------------------
G|---------------------------------------------------------------------------
D|--99xx99xx99xx99xx---12121212--7777777-------------------------------------
A|--99xx99xx99xx99xx---12121212--7777777-------------------------------------
E|--77xx77xx77xx77xx---10101010--5555555-------------------------------------

e|---------------------------------------------------------------------------
B|---------------------------------------------------------------------------
G|---------------------------------------------------------------------------
D|--99xx99xx99xx99xx---12121212--7777777-------------------------------------
A|--99xx99xx99xx99xx---12121212--7777777-------------------------------------
E|--77xx77xx77xx77xx---10101010--5555555-------------------------------------

verse 3
(Guitar 1) (02:01)
e|---------------------------------------------------------------------------
B|---------------------------------------------------------------------------
G|----11-------11-------14-11-14-11-14-11--14-11-14-11-14-11-----------------
D|--9----9-9-9----11-9-------------------------------------------------------
A|---------------------------------------------------------------------------
E|---------------------------------------------------------------------------

(Guitar 2) (02:01)
e|---------------------------------------------------------------------------
B|---------------------------------------------------------------------------
G|---------------------------------------------------------------------------
D|--99xx99xx99xx99xx---12121212--7777777-------------------------------------
A|--99xx99xx99xx99xx---12121212--7777777-------------------------------------
E|--77xx77xx77xx77xx---10101010--5555555-------------------------------------

Chorus x2
(Guitar 2) (02:09)

e|---------------------------------------------------------------------------
B|---------------------------------------------------------------------------
G|---------------------------------------------------------------------------
D|9-9-9--1275-5-5-5-9-9-9-9-7--7--7--7---------------------------------------
A|9-9-9--1275-5-5-5-9-9-9-9-7--7--7--7---------------------------------------
E|7-7-7--1053-3-3-3-7-7-7-7-5--5--5--5---------------------------------------

Palm Mute (lightly)
(Guitar 2) (02:25)
e|---------------------------------------------------------------------------
B|---------------------------------------------------------------------------
G|---------------------------------------------------------------------------
D|--99xx99xx99xx99xx---12121212--7777777-------------------------------------
A|--99xx99xx99xx99xx---12121212--7777777-------------------------------------
E|--77xx77xx77xx77xx---10101010--5555555-------------------------------------

e|---------------------------------------------------------------------------
B|---------------------------------------------------------------------------
G|---------------------------------------------------------------------------
D|--99xx129xx99xx149xx---12121212--7777777-----------------------------------
A|--99xx129xx99xx149xx---12121212--7777777-----------------------------------
E|--77xx107xx77xx127xx---10101010--5555555-----------------------------------

Guitar 2 (02:41)
e|---------------------------------------------------------------------------
B|---------------------------------------------------------------------------
G|---------------------------------------------------------------------------
D|-4444444444----------------------------------------------------------------
A|-4444444444----------------------------------------------------------------
E|-2222222222----------------------------------------------------------------

Chorus x2
(Guitar 2) (02:49)

e|---------------------------------------------------------------------------
B|---------------------------------------------------------------------------
G|---------------------------------------------------------------------------
D|9-9-9--1275-5-5-5-9-9-9-9-7--7--7--7---------------------------------------
A|9-9-9--1275-5-5-5-9-9-9-9-7--7--7--7---------------------------------------
E|7-7-7--1053-3-3-3-7-7-7-7-5--5--5--5---------------------------------------



Tabbed By Brandon B

| /  slide up
| \  slide down
| h  hammer-on
| p  pull-off
| ~  vibrato
| +  harmonic
| x  Mute note


Important: The song above is NOT stored on the Chordie server. The original song is hosted at www.guitaretab.com. Chordie works as a search engine and provides on-the-fly formatting. Chordie does not index songs against artists/composers will. To remove this song please click here.

This song is displayed as text-only. Transposing and tuning is only available for chordpro-songs.

Login - add to songbook

Rating click stars to rate

Layout
Accuracy

SHARE PAGE  

You need to log in to post comments