Chordie logo

Oh Donna   Ritchie Valens



e|-------0-------------|
B|-------1--1----------|
G|-----0-------0-------|
D|---2-----------------|
A|-3-------------------|
E|---------------------|

e|-------0-------------|
B|-------1--1----------|
G|-----2-------0-------|
D|---2-----------------|
A|-0-------------------|
E|---------------------|

e|----------1----------|
B|-------1--1--1-------|
G|-----2---------2-----|
D|---3-----------------|
A|---------------------|
E|---------------------|

e|----------3----------|
B|-------3--3--3-------|
G|-----4---------4-----|
D|---5-----------------|
A|---------------------|
E|---------------------|




Important: The song above is NOT stored on the Chordie server. The original song is hosted at www.guitaretab.com. Chordie works as a search engine and provides on-the-fly formatting. Chordie does not index songs against artists/composers will. To remove this song please click here.

This song is displayed as text-only. Transposing and tuning is only available for chordpro-songs.

Login - add to songbook

Rating click stars to rate

Layout
Accuracy

SHARE PAGE  

You need to log in to post comments