Chordie logo

Demon Speeding   Rob Zombie



ROB ZOMBIE: DEMON SPEEDING BY MARCIO CASTRO.

*INTRO:

GTR1:
Eb|---------------------|
Bb|---------------------|
Gb|---------------------|
Db|-3-00--3-0-3-00--6-5-| x1
Ab|-3-00--3-0-3-00--6-5-|
C#|-3-00--3-0-3-00--6-5-|

GTR2:
Eb|---------------------|
Bb|-6-----6---6----/9-8~|
Gb|---77----7---77------|
Db|---------------------| X1
Ab|---------------------|
C#|---------------------|


*PART1:

GTR1:
Eb|----------------------|
Bb|----------------------|
Gb|----------------------|
Db|-0000-3-00-33-00--6-5-| x4
Ab|-0000-3-00-33-00--6-5-|
C#|-0000-3-00-33-00--6-5-|

GTR2: STARTS IN X2 OF GTR1.
Eb|-----------------------------------------|
Bb|-----------------/9-8~--6-----6----6-6---|
Gb|--------------------------777---77-----7-|
Db|-----------------------------------------| x2
Ab|-----------------------------------------|
C#|-----------------------------------------|


*PART2:

GTR1:
Eb|-----------------------|
Bb|-----------------------|
Gb|-----------------------|
Db|-3-0000000--3-00-3-3-0-| x8
Ab|-3-0000000--3-00-3-3-0-|
C#|-3-0000000--3-00-3-3-0-|

GTR2: 5/10 IS PLAYED ONLY ON THE 1ST TIME.
Eb|-------------------|--------------------|-------------------|
Bb|-1/6--6------6-----|-/9-8~-6------6-----|-1/6--6------6-----|
Gb|-------7777---7777-|--------7777---7777-|-------7777---7777-|
Db|-------------------|--------------------|-------------------| X1
Ab|-------------------|--------------------|-------------------|
C#|-------------------|--------------------|-------------------|

CHORUS:

GTR1:
Eb|----------------------|
Bb|----------------------|
Gb|----------------------|
Db|-6-5-0000-3-00-33-00--| x4
Ab|-6-5-0000-3-00-33-00--|
C#|-6-5-0000-3-00-33-00--|


PART2.

CHORUS. X8

PART3:
GTR1:
Eb|------------|------------------|
Bb|------------|------------------|
Gb|------------|------------------|
Db|-6-5-3-2-66-|-3-00-0-3-00-0-33-| x2
Ab|-6-5-3-2-66-|-3-00-0-3-00-0-33-|
C#|-6-5-3-2-66-|-3-00-0-3-00-0-33-|

SOLO:


Eb|-------10-----------10---------------13p12h13p12h13-|
Bb|-10-10----13--10-10----13---10-10-13----------------|
Gb|----------------------------------------------------|
Db|----------------------------------------------------|
Ab|----------------------------------------------------|
C#|----------------------------------------------------|

PART2.

CHORUS. x8

PART4:
Eb|-------------------|
Bb|-------------------|
Gb|-------------------|
Db|-3-00-3-00-3-000-3-|
Ab|-3-00-3-00-3-000-3-|


Important: The song above is NOT stored on the Chordie server. The original song is hosted at www.guitaretab.com. Chordie works as a search engine and provides on-the-fly formatting. Chordie does not index songs against artists/composers will. To remove this song please click here.

This song is displayed as text-only. Transposing and tuning is only available for chordpro-songs.

Login - add to songbook

Rating click stars to rate

Layout
Accuracy

SHARE PAGE  



You need to log in to post comments