Guitar Tabs, Chords and Lyrics


Rugged Road   Robben Ford








Date: Sun, 1 Mar 1998 19:28:51 -0800 (PST)



This is the song Rugged Road by Robben Ford, from the Handful of blues
album..  this tidbit brought to you by Mike Teague  


heres the main riff.

B7
------------------------------------------------------------------|
----------------------------------------------9^------------------|
---7-9-7------------7-9-7----------7-9-7------9^-7-9-7------------|
-9--------9-7-----9-------9-7----9-------9-7----------9-7---------|
--------------9---------------9-------------9------------9--------|
------------------------------------------------------------------|

B7                                                    D#7?(might be bigger)
----------------------------------------------------------------|
----------------------------------------------------------------|
---7-9-7------------7-9-7----------7-9-7------(7-9tr)-6---------|
-9--------9-7-----9-------9-7----9-------9-7----------5---------|
--------------9---------------9-------------9---------6---------|
----------------------------------------------------------------|

verse chords are below, with various Bm pentatonic noodlings between
phrases... just improvise..

G#m7 | E7 | B7 | B7 | E7 | E7 | B7 | B7 D#7 | G#m7 | E7 | B7 | B7 | E7 |F#7 |


------------------------------------------------------------------------
                Mike Teague 
               ---=== http://glock.triax.com ===---
Home Recording - Guitar - Linux - Firearms - Liberty - RF Scanners - IRC
      My Original music in MP3,WAV, and RA formats at the webpage!
                      "I am not disgruntled!"
------------------------------------------------------------------------

This is the song Rugged Road by Robben Ford, from the Handful of blues
album..  this tidbit brought to you by Mike Teague  


heres the main riff.

B7
------------------------------------------------------------------|
----------------------------------------------9^------------------|
---7-9-7------------7-9-7----------7-9-7------9^-7-9-7------------|
-9--------9-7-----9-------9-7----9-------9-7----------9-7---------|
--------------9---------------9-------------9------------9--------|
------------------------------------------------------------------|

B7                                                    D#7?(might be bigger)
----------------------------------------------------------------|
----------------------------------------------------------------|
---7-9-7------------7-9-7----------7-9-7------(7-9tr)-6---------|
-9--------9-7-----9-------9-7----9-------9-7----------5---------|
--------------9---------------9-------------9---------6---------|
----------------------------------------------------------------|

verse chords are below, with various Bm pentatonic noodlings between
phrases... just improvise..



Important: The song above is NOT stored on the Chordie server. The original song is hosted at www.guitaretab.com. Chordie works as a search engine and provides on-the-fly formatting. Chordie does not index songs against artists'/composers' will. To remove this song please click here.

This song is displayed as text-only. Transposing and tuning is only available for chordpro-songs.

Login - add to songbook

Rating click stars to rate

Layout
Accuracy

SHARE PAGE  




You need to log in to post comments