Song Of Hope Come Down Acoustic

Robbie Seay Band

-------------------------------------------------------------------------------

-------------------------------------------------------------------------------
e|---------------------------------------------------------------------------|
B|---------------------------------------------------------------------0-----|
G|-0--0--0--0--0--0--0--0-0-0--0--0--0-0-0--0-0-0--0-0-0-------0---0h2---2-0-|
D|-4--5--5--4--4--5--5--4-4-4--5--5--5-5-5--4-4-4--4-4\2---------------------|
A|-5--5--5--5--5--5--5--5-5-5--5--5--5-5-5--5-5-5--5-5-2---------2-----------|
E|-3--3--3--3--3--3--3--3-3-3--3--3--3-3-3--3-3-3--3-3-0---------------------|
e|------------------------|--------------------------------------------------|
B|-----------------0------|--------------------------------------------------|
G|-0-------0---0h2---2-0--|-----------------------%--------------------------|
D|-2----------------------|--------------------------------------------------|
A|-2---------2------------|--------------------------------------------------|
E|-0----------------------|--------------------------------------------------|

 Em7G
  All things bright and beautiful You are
 Em7G
  All things wise and wonderful You are
 Em7D/F#
  In my darkest night, You brighten up the skies
 Em7Cadd9
  A song will rise

Chorus 1:
 G
 (oh) I will sing a song of hope. Sing along
 Em7
 God of heaven come down
 Cadd9
 Heaven come down
 G
 Just to know that You are near is enough
 Em7Cadd9
 God of heaven come down, heaven come down

Intro/Instrumental (1x)

Verse 2:

 Em7G
  All things new I can start again
 Em7G
  Creator, God calling me Your friend
 Em7D/F#
  Sing praise, my soul to the Maker of the skies
 Em7Cadd9
  A song will rise

Chorus 2:

 G
 I will sing a song of hope
Sing along
 Em7
 God of heaven come down
 Cadd9
 Heaven come down
 G
 Just to know You and be loved is enough
 Em7Cadd9
 God of heaven come down, heaven come down

Chorus 1

Instrumental:

 C/ED/F#Em7D

Bridge:
 Cadd9DEm7Dsus
 Hallelujah, sing, sing
 Cadd9DEm7Dsus
 Hallelujah, sing, oh sing
 Cadd9DEm7Dsus
 Hallelujah, sing     

Chorus 1 (2x)

Chorus 2

Intro/Instrumental (1x)

End on G

Em7 022033
G 320033
D/F# 200232
Cadd9 032033
C/E 032030
D 000232
Dsus 000233

| / slide up
| \ slide down
| h hammer-on
| p pull-off
| ~ vibrato
| + harmonic
| x Mute note

===============================================================================


C/E Cadd9 D D/F# Dsus Em7 G
variations - click chord images
Transpose chords:
Tuning:
Cool service:
View: Size:
A  A  A
Rating:
Layout:
  • Currently 3.1/5 Stars.
  • 1
  • 2
  • 3
  • 4
  • 5
 
Accuracy:
  • Currently 2.7/5 Stars.
  • 1
  • 2
  • 3
  • 4
  • 5
 
click stars to rate
Chordie recommends:
Learn to play this song & others via video guitar lessons at JamPlay.com
Songbook:
Login to add this song to your songbook
Support the artist
Preview/buy this song
MSN Music
Why this non-profit ad?

 
login to add comments/video/corrections