Guitar Tabs, Chords and Lyrics


Angles  Robbie Williams

e|----0------------------------------


B|----0------------------------------


G|----2------------------------------

D|----2------------------------------
A|----0------------------------------
E|----0------------------------------
e|------0-----------------------------
B|------3-----------------------------
G|------2-----------------------------
D|------0-----------------------------
A|------0-----------------------------
E|------0-----------------------------
[E]                                     
Verse:
I sit and [E]wait. Does an angel contempla[#]te my fa[A]te.
[B]And do they k[E]now the places were we go when we're grey and [#]old.[A]
[B]Cuz I have been [A]told that salvation lets their [C#m]wings unfold. [A]
So when I'm l[D]ying in my bed,
Thoughts [A]running through my head,
And I [E]feel that love is dead.
** A E
I'm loving angels instead.

Chorus:
And through it [B]all she offers me prot[C#m]ection,
A lot love and aff[A]ection, w[#]hether I'm right or [E]wrong.
And down the waterf[B]all wherever it may t[C#m]ake me,
I know that life won't br[A]eak me.
W[#]hen I come to c[E]all, she won't fo[F#m]rsake me.
** A E
I'm loving angels instead.

Verse:
[E]When I'm feeling weak and my pain walks down a on[#]e way stre[A]et.
[B]I look above[E] and I know I'll always be blessed[#] with lov[A]e.
[B]And[D] as the feeling grows
she [A]breathes flesh to my bones
And wh[E]en love is dead,
** A E
I'm loving angels instead.

Chorus:
And through it [B]all she offers me prot[C#m]ection,
A lot love and aff[A]ection, w[#]hether I'm right or [E]wrong.
And down the waterf[B]all wherever it may t[C#m]ake me,
I know that life won't br[A]eak me.
W[#]hen I come to c[E]all, she won't fo[F#m]rsake me.
** A E
I'm loving angels instead.

Solo:

E|--4--2--0-----2-2-2--4--2--0-----2-2-2--4--2--0-----0-0-0-0-0-0-0-------
B|-----------2--3-3-3-----------2--2-2-2-----------2--0-0-0-0-0-0-0-------
G|--------------4-4-4--------------2-2-2--------------1-1-1-2-1-1-1-------
D|--------------4-4-4--------------2-2-2--------------2-2-2-2-2-2-2-------
A|--------------0-0-0---------------------------------2-2-2-2-2-2-2-------
E|--------------0-0-0---------------------------------0-0-0-0-0-0-0-------				


Important: The song above is NOT stored on the Chordie server. The original song is hosted at www.guitaretab.com. Chordie works as a search engine and provides on-the-fly formatting. Chordie does not index songs against artists'/composers' will. To remove this song please click here.

Text color:
Chord color:
Chord grids: 
Font size:    
Page size: 

A B C#m D E F#m
variations - click chord images

Login - add to songbook

Transpose chords

Tuning

Rating click stars to rate

Layout
Accuracy

SHARE PAGE  




You need to log in to post comments