Guitar Tabs, Chords and Lyrics


Quem Tem Coragem Nao Finge  Rodox

e|------------------------------|


B|-3-3-3-3-1-1~--(3x)-----------|


G|---------------------2/3-2~---|

D|------------------------------|
A|------------------------------|
E|------------------------------|
[Dm]É preciso ter um tempo longe daq[F]ui
Tempo de ficar só
[Dm]De andar na a[Gm]reia e sumi[Bb]r
[Dm]Amor verdadeiro não reage ass[F]im
Pode fazer melhor
[Dm]Esconde o [Gm]medo e sorr[Bb]i
[Gm]Quem já nadou contra [F]a corrente
[Bb]Sabe usar o vento a fav[Dm]or
[Gm]Só o momento é d[F]iferente
[C]É a mesma ferramenta que us[Bb]ou
[Dm]Eu não preciso mais fazer o que você d[F]iz
Dei valor ao meu suor
[Dm]Ninguém de[Gm]cide por [Bb]mim
[Dm]Se eu agi errado me perdoe porque eu não qui[F]s
Amarrar outro nó
[Dm]Que prende [Gm]pra div[Bb]idir

[Gm]O que impede de and[F]ar pra frente
[Bb]É a direção que escolh[Dm]eu
[Gm]Se um abismo sepa[F]ra a gente
Quem [C]fez a escavação não fui [Bb]eu
Eu s[C]ei que gente que tem cor[Bb]agem não finge
Que n[F]ada disso [Gm]acontec[Bb]eu

Qu[F]ando eu acordei era f[C]im de tarde
Meu l[Gm]ado claro escurec[Bb]eu
(Um novo sol só de manhã)
F[F]az envelhecer tendo a m[C]esma idade
De t[Gm]anto que a alma sofre[Bb]u
Eu s[C]ei que gente que tem cor[Bb]agem não finge...

F Gm Bb F (2x) F
Solo:
e|-------------------------------------------------|
B|-3-3-3-1-1--(3x)---------------------------------|
G|-----------------2-3-2--(2x)---------------------|
D|-------------------------------------------------|
A|-------------------------------------------------|
E|-------------------------------------------------|
e|--5-5-5-5-5--------------------|
B|-------------6-6---------------|
G|-------------------------------|
D|-------------------------------|
A|-------------------------------|
E|-------------------------------|

[Gm]O que impede de and[F]ar pra frente
[Bb]É a direção que escolh[Dm]eu
[Gm]Se um abismo sepa[F]ra a gente
Quem [C]fez a escavação não fui [Bb]eu
Eu s[C]ei que gente que tem cor[Bb]agem não finge
Que n[F]ada disso [Gm]acontec[Bb]eu

Qu[F]ando eu acordei era f[C]im de tarde
Meu l[Gm]ado claro escurec[Bb]eu
(Um novo sol só de manhã)
F[F]az envelhecer tendo a m[C]esma idade
De t[Gm]anto que a alma sofre[Bb]u
Eu s[C]ei que gente que tem cor[Bb]agem não finge...

Important: The song above is NOT stored on the Chordie server. The original song is hosted at www.guitaretab.com. Chordie works as a search engine and provides on-the-fly formatting. Chordie does not index songs against artists'/composers' will. To remove this song please click here.

Text color:
Chord color:
Chord grids: 
Font size:    
Page size: 

Bb C Dm F Gm
variations - click chord images

Login - add to songbook

Transpose chords

Tuning

Rating click stars to rate

Layout
Accuracy

SHARE PAGE  




You need to log in to post comments