Terminal

Rupert Holmes

            ------


 ---

SIMPLE INTRO: E C#m F#m A6/F#
 EC#mF#mA6/F#

COMPLETE INTRO:

 E9-EC#sus2-C#mF#m9-F#mA6/F#
E|-----------------|-------------------|------------------|-----------------|
B|-5-----5-----5---|---4-----4---------|------9-----7-----|-5-----7-----7---|
G|-----4-----4---4-|-------4-----4-6---|----6-----6-----6-|-----6-----6-----|
D|---6-----6-------|-----6-----6-----6-|--7-----7-----7---|---7-----7-----7-|
A|-----------------|-------------------|------------------|-----------------|
E|-----------------|-------------------|------------------|-----------------|


 E9-EC#sus2-C#mF#m9-F#mA6/F#
E|-----------------|-------------------|------------------|-----------------|
B|-----5-----5---5-|---4-----4---------|------9-----7-----|-5-----7-----7---|
G|---4-----4---4---|-------4-----4-6---|----6-----6-----6-|-----6-----6-----|
D|-6-----6---------|-----6-----6-----6-|--7-----7-----7---|---7-----7-----7-|
A|-----------------|-------------------|------------------|-----------------|
E|-----------------|-------------------|------------------|-----------------|


 EC#m7F#m9-F#m
 I've come back this morning to where I first came alive

 G#/D#G#C#mC#m-B-A#m/-5
 Here within this terminal where the buses arrive              

 A#m/-5AM7
 I was a commuter on the 804

 A#m/-5B
 Worked on a computer on the 19th floor and

 EC#m7F#m9-F#m
 You came down the aisle of the bus and you sat by my side

 G#/D#G#C#mC#m-B-A#m/-5
 Shoulder up to shoulder we shared that 9 o'clock ride              

 A#m/-5AM7
 Oh my heart was screaming as you left your seat

 A#m/-5B
 Following your movements I was at your feet and

EM7 C#m7 F#m Gm
Oh down into the terminal both of us smiled

 G#mC#mF#m-G#mF#m-B
 So we entered the terminal just as she smiled         

 EC#m7F#m9-F#m
 Won't you leave out work today - you ask of me then

 G#/D#G#C#mC#m-B-A#m/-5
 So I phoned in sick on the way to the home of a friend              

 A#m/-5AM7
 We were all alone from 10 A.M. till three

 A#m/-5B
 Really thought the fire had gone out of me but

 EC#m7F#m9-F#m
 You awoke the sleep of my life from gray into red

 G#/D#G#C#mC#m-B-A#m/-5
 Made the weary wonder of Wall Street rise from the dead              

 A#m/-5AM7
 Could have had the fun of my entire life

 A#m/-5B
 But I have to get home to the kids and the wife and

 EM7C#m7F#mGm
 So I left for the terminal where I began   

 G#mC#mF#m-G#mF#m-B
Baby no, I wouldn't have left if I'd been half a man            

E C#m7 F#m9 - F#m
So here I am this morning where love had asked for the dance

 G#/D#G#C#mC#m-B-A#m/-5
 Here within this terminal where I passed on a chance              

 A#m/-5AM7
 Lord I'll never find her through I've truly tried

 A#m/-5B
 Probably she's found another bus to ride and

 EC#m7F#m9-F#m
 I am now about to begin the last of my days

 G#/D#G#C#mC#m-B-A#m/-5
 I'm within what others would call a terminal face              

 A#m/-5AM7
 I myself can only say it's livin dead

 A#m/-5BEM7
 Ridin to the office with the song in my head that  goes

 C#m7F#mGmG#m
 La da da da da da da da da da  and you know it grows

 C#mF#m-G#mF#m-B
 La da da da da da da da da da           

 EM7C#m7F#mGmG#m
 Ohh   La da da da da da da da da da      Ohh

 C#mF#m-G#mF#m-B
 La da da da da da da da da da           

 EM7C#m7F#mGm
 Ohh   La da da da da da da da da da da da   (Fade Out)

___

A6/F# Am7 B C#m C#m7 C#sus2 E E9 Em7 F#m F#m9 G# G#m Gm
variations - click chord images
Transpose chords:
Tuning:
Cool service:
View: Size:
A  A  A
Rating:
Layout:
  • Currently 3/5 Stars.
  • 1
  • 2
  • 3
  • 4
  • 5
 
Accuracy:
  • Currently 2.5/5 Stars.
  • 1
  • 2
  • 3
  • 4
  • 5
 
click stars to rate
Chordie recommends:
Learn to play songs at Jamplay.com with video guitar lessons
Songbook:
Login to add this song to your songbook
Support the artist
Preview/buy this song
MSN Music
Why this non-profit ad?

 
login to add comments/video/corrections