Chordie logo


Send Up A Flare  Ryan Long

-------------------------------------------------------------------------------



-------------------------------------------------------------------------------

e|-----------------------------------------------------------------------------|
B|-----------------------------------------------------------------------------|
G|-----------7-----------------------5-----------------------------------------|
D|-----------7------- 8------------- 5---------------------------------------| x2
A|-----5--5--5-------- 8-------3--3--3-----------------------------------------|
E|------------------6--6-------------------------------------------------------|
drivin' down the[D] back roads
itchy eyes, slee[A#]py toes
from tow[C]n, to town, to[Bb] town i roam       [C]
half a nickel moo[D]n tonight
spillin' coffee,[A#] runnin' lights
gasoline[C] machine gotta g[Bb]et me home      [C]
Bridge:
sometim[Bb]es i tend to los[A]e my way....    [Bb]
gotta s[C]ay...

Chorus:
i w[D]ill not try t[A#]o escape
the plan[C]s that you've made[Bb] for me                 [C]
and [D]if i'm losin' my[A#] way
C Bb (hold)
please send up a flare for me....for me

Important: The song above is NOT stored on the Chordie server. The original song is hosted at www.guitaretab.com. Chordie works as a search engine and provides on-the-fly formatting. Chordie does not index songs against artists/composers will. To remove this song please click here.

Text color:
Chord color:
Chord grids: 
Font size:    
Page size: 

A A# Bb C D
variations - click chord images

Login - add to songbook

Transpose chords

Tuning

Rating click stars to rate

Layout
Accuracy

SHARE PAGE  




You need to log in to post comments