Chordie logo


I Wanna Hear Another Fast Song   Saosin



ARTIST: Saosin
TITLE:  I Wanna Hear Another Fast Song

---

Here's a tab for a song which will probably be on the album. Have fun!
Tuning down a step: D G C F A D

---

Intro Riff - Lead Guitar

D|---------------------------------------|------------------|
A|----------8-----------8------8---------|------------------| x4, with the
F|-----11-----11---11-----11-----11---11-|------------------| fill taking
C|-7h9----9------9----9------9------9----|------------------| up half of the
G|---------------------------------------|---------9-10-9-7-| last one
D|---------------------------------------|-0-7-8-0----------|
          .      .    .      .      .

Intro Chords - Rhythm Guitar

D|-------------------------------------|
A|-------------------------------------| x2, second time without the
F|-99999999-77777777-55555555-55555555-| last set of A# (3/5/5)
C|-99999999-77777777-55555555-55555555-|
G|-77777777-55555555-33333333-33333333-|
D|-00000000----------------------------|


Verse Buildup - Both Guitars

D|-----7-------|
A|--------7--8-| x1, just one guitar playing those high notes
F|-------------|
C|-2-----------|
G|-2-----------|
D|-0-----------|


Verse Riff - Lead Guitar

D|-------------------|----------------|----------------------|
A|-------------------|----------------|----------------------| x8
F|-0h7h9p0t12p0h7h9p0|-h2h4p0h2h4t7/9-|-h12h14p0h14p12p14/16-|
C|-------------------|----------------|----------------------|
G|-------------------|----------------|----------------------|
D|-------------------|----------------|----------------------|

  (This one's a tad complicated, play the first secion eight times, with
   three of the first ending, then one of the second, then three of the
   first, then one of the second.)


Verse Harmonics - Rhythm Guitar

D|--------------------------------------------------|
A|---------------------------(5)----------------(5)-| x2, second time's a
F|----(5)----(5)---(5)----(5)---(5)----(5)---(5)----| tad different but it's
C|-(4)---(5)----(4)---(5)----------(4)----(4)-------| the same harmonics
G|--------------------------------------------------|
D|--------------------------------------------------|


Post-Verse - Both Guitars

D|----------------------------|----------|----------|
A|----------------------------|----------|---7----8-| x2, each guitar plays
F|----------------------------|----------|----------| one of those two
C|-2-2--2------2------2-2--2--|---4----5-|----------| endings (it's an
G|-2-2--2------2------2-2--2--|----------|-7----7---| octave harmony)
D|-0-0--0------0------0-0--0--|-0----0---|----------|
                                .    .     .    .


Then it's the chorus x4, which is identical to the intro for both guitars.

Then verse buildup, same as before.

Then another verse, same as before.

Then another post-verse, same as before.

Then another chorus, same as before.


Bridge - Lead Guitar

D|------------------------------------------------------------------------|
A|------------------------------------------------------------------------|
F|------------------------------------------------------------------------|
C|---------------------------------------------------------------9------7-|
G|-10-----9-10---7-------------------10-----9-10---7------7-10-9---10-9---|
D|----0-0------0---0-0-0-000-0-0-000----0-0------0---0-10-----------------|
      . .      .   . . . ... . . ...    . .      .   .


Bridge - Rhythm Guitar

D|----------------------------------------------------------------------|
A|----------------------------------------------------------------------|
F|----------------------------------------------------------------------|
C|-9-----7-9------------------------9-----7-9------------------9------7-|
G|-------------10-------------------------------10------7-10-9---10-9---|
D|---0-0-----0----0-0-0-000-0-0-000---0-0-----0----0-10-----------------|
     . .     .    . . . ... . . ...   . .     .    .

Lead guitar on his own for one, then both guitars for another four.


Ending - Both Guitars

D|-------------------|
A|-------------------|
F|-------------------|
C|-2----2----2-2---2-|
G|-2----2----2-2---2-|
D|-0----0----0-0---0-|

----------------------------------------------------------------------------


Important: The song above is NOT stored on the Chordie server. The original song is hosted at www.guitaretab.com. Chordie works as a search engine and provides on-the-fly formatting. Chordie does not index songs against artists/composers will. To remove this song please click here.

This song is displayed as text-only. Transposing and tuning is only available for chordpro-songs.

Login - add to songbook

Rating click stars to rate

Layout
Accuracy

SHARE PAGE  




You need to log in to post comments